Home » B » Beastie Boys »

Beastie Boys - Sabotage Bass

Artists:  A B C D E F G H I J K L M N O P Q R S T U V W X Y Z # 

Sabotage Bass

(ver. 1) Click to play this song!
Beastie Boys
	Sabotage (Bass solo) - Beastie Boys


Tuning: Standard

This was a request for the guitar hero bass solo, I think its mostly correct.


(why!?/Chorus 3) 2:15

G|------13-------12------11---10---------13-------12------11----------4-|
D|------11-------10------9----8----------11-------10------9-------------|
A|-10h11------9h10------8h9---------10h11-----9h10-----8h9-------4h5h6--|
E|------------------------------------------------------------4h7-------|


  Variations for blues riff found in the song

G|-------------|----------4-|----------|--------------|
D|---------4h6-|---------6--|-------44-|--6p4---------|
A|----4h5h6----|----4h5h6---|----4h5---|-----6p5p4----|
E|-4h7---------|-4h7--------|-4h7------|----------4h7-|

And of course, the main riff goes like

G|-------11-------11-------11-------11-------11-------|
D|----------------------------------------------------|
A|-11-11----11-11----11-11----11-11----11-11----------|
E|----------------------------------------------------|


| /  slide up
| \  slide down
| h  hammer-on
| p  pull-off
| ~  vibrato
| +  harmonic
| x  Mute note
            
Submit corrections

↑ Back to top | Tablatures and chords for acoustic guitar and electric guitar, ukulele, drums are parodies/interpretations of the original songs. You may use it for private study, scholarship, research or language learning purposes only