Home » B » Beastie Boys »

Beastie Boys - Fight For Your Right To Party Tabs

Artists:  A B C D E F G H I J K L M N O P Q R S T U V W X Y Z # 

Fight For Your Right To Party Tabs

(ver. 2) Click to play this song!
Beastie Boys
  vibrato---------|
|-14b16r14-14b16r14-14-11----11---------------|
|-------------------------14-11-14-11-14-14b16|
|---------------------------------------------|
|---------------------------------------------|
|---------------------------------------------|
|---------------------------------------------|

                                                             vibrato---|
|-----------------------------------------14p13p11---------------------|
|--------------------------------------------------14-11-14-11-14-14b16|
|----------------11-13-11-13b14-pb14r13-11-----------------------------|
|----------11-13-------------------------------------------------------|
|-11h12-13-------------------------------------------------------------|
|----------------------------------------------------------------------|
            
Submit corrections

↑ Back to top | Tablatures and chords for acoustic guitar and electric guitar, ukulele, drums are parodies/interpretations of the original songs. You may use it for private study, scholarship, research or language learning purposes only