Home » B » Beastie Boys »

Beastie Boys - Make Some Noise Bass

Artists:  A B C D E F G H I J K L M N O P Q R S T U V W X Y Z # 

Make Some Noise Bass

(ver. 1) Click to play this song!
Beastie Boys
intro
|---------------------|
|---------------------|
|--9-7-6-7-7-5-3------|
|----------------5\0--|
|---------------------|
|---------------------|

main riff
|----------------------------|
|----------------------------|
|---------7-9------------7-9-|
|--7-7-10------7-10-7-10-----|
|----------------------------|
|----------------------------|

part of the last verse
|------------------------------|
|------------------------------|
|---------9-11------------9-11-|
|--9-9-12-------9-12-9-12------|
|------------------------------|
|------------------------------|
            
Submit corrections

↑ Back to top | Tablatures and chords for acoustic guitar and electric guitar, ukulele, drums are parodies/interpretations of the original songs. You may use it for private study, scholarship, research or language learning purposes only