Home » B » Beastie Boys »

Beastie Boys - Fight For Your Right To Party Bass

Artists:  A B C D E F G H I J K L M N O P Q R S T U V W X Y Z # 

Fight For Your Right To Party Bass

(ver. 1) Click to play this song!
Beastie Boys
verse

G|------------------------------------------|
D|------------------------------------------|
A|-------2--4---------------------------2-4-|
E|--4-4---------4-4-4-4-4-4-4-4-4---4-4-----|

chorus

G|--------------------------------|
D|--------------------------------|
A|--4-4---2222------2-4-------2-4-|
E|---------------4-4------4-4-----|

bit b4 solo

G|----------------|
D|----------------|
A|----------------|
E|---0-0-3-0-3-0--|
            
Submit corrections

↑ Back to top | Tablatures and chords for acoustic guitar and electric guitar, ukulele, drums are parodies/interpretations of the original songs. You may use it for private study, scholarship, research or language learning purposes only