» » »

Amen - I Don't Sleep Tabs

Artists:  A B C D E F G H I J K L M N O P Q R S T U V W X Y Z # 

I Don't Sleep Tabs

(ver. 3) Click to play this song!
Amen
 Rating:
4/5 (4 votes)

 I Don't Sleep lessons Tabs too difficult? Try these video lessons and learn fast
 
                key:
/=slide down
Amen

"i dont sleep"

drop d tuning

intro both Guitars
d|-------0--------0---|
a|-6-6-6-0--6-6-6-0---|
d|-8-8-8-0--8-8-8-0---|
g|-8-8-8----8-8-8-----|
b|--------------------|
e|--------------------| leave G2 to ring while G1 plays riff A

riff A G1
|-x-x-x-x-x-x-x-x-x-|
|-x-x-x-x-x-x-x-x-x-|
|-x-x-x-x-x-x-x-x-x-| 
verse G1
|-x-x-x-x-x-x-x-x-x-|
|-x-x-x-x-x-x-x-x-x-|
|-x-x-x-x-x-x-x-x-x-|

G2
|-0-0-0---0-0-0-----|
|-------5-------5/0-|
|-------------------|

chorus Both guitars
|-3-6-8-10-12--3-6-8-10-10--|
|-3-6-8-10-12--3-6-8-10-10--|
|-3-6-8-10-12--3-6-8-10-10--|

Riff B both guitars
|-3-4-6--3-3-3-3-4-6--|
|-3-4-6--3-3-3-3-4-6--|
|-3-4-6--3-3-3-3-4-6--|

end both guitars
|-3-3-|
|-3-3-|
|-3-3-|

Listen to song for timing and strum patterns.


       x x  magic face!
     -[-|-]-
            
Submit corrections


        I Don't Sleep lessons Hard to play? Try these video lessons and learn fast I Don't Sleep lessons
        
↑ Back to top | Tablatures and chords for acoustic guitar and electric guitar, ukulele, drums are parodies/interpretations of the original songs. You may use it for private study, scholarship, research or language learning purposes only