» » »

Amen - I Don't Sleep Tabs

Artists:  A B C D E F G H I J K L M N O P Q R S T U V W X Y Z # 

I Don't Sleep Tabs

(ver. 2) Click to play this song!
Amen
 Rating:
4/5 (4 votes)

 I Don't Sleep lessons Tabs too difficult? Try these video lessons and learn fast
 
                I Don't Sleep by Amen (from the album 'Amen')


I've left the bassline in so you can sort of judge where you are in the song. The guitars do a bit of feedback at the start of the verses while the bassline is played (you'll need to tune your bass to drop D as well). I haven't done each verse individually 'cos there'd be too much repetition, so i've tabbed a verse example, a chorus, and the bridge. You should be able to figure it out from that little lot- it's a simple enough piece.

Playing tips-- detune a little, and get angry. 


Intro (guit 1 & 2):

e ---------------------
B ---------------------
G ---7-7-7-------7-7-7-
D ---7-7-7-6-----7-7-7-
A ---5-5-5-6-----5-5-5-
D -0-------6---0-------



(guit 1 & 2)
e ---------------------------------|
B ---------------------------------|
G ----f-e-e-d-b-a-c-k-&-f-x--------|
D ---------------------------------|
A ---------------------------------|
D ---------------------------------|
                                   |
D -0-0-3-3-6-6-6-0-0-3-3-3-6-6-6-6-| x7



(guit 1 & 2)
e ---------------------------------|
B ---------------------------------|
G ----f-e-e-d-b-a-c-k-&-f-x--------|
D ---------------------------------|
A ---------------------------------|
D ---------------------------------|
                                   |
D -0-0-3-3-6-6-6-0-0-3-3-----------|
                         'and i have seen...'



e ---------------------------------|---------------------------------|
B ---------------------------------|---------------------------------|
G -12------------------------------|---------------------------------|
D ---------------------------------|-12------------------------------|
A ---------------------------------|---------------------------------|
D ---------------------------------|---------------------------------|
                                   |                                 |
e ---------------------------------|---------------------------------|
B ---------------------------------|---------------------------------|
G ---------------------------------|---------------------------------|
D ---------------------------------|-0-0---0-12--0-0---0-1212\ \\ \--|
A ---------------------------------|-0-0---0-12--0-0---0-1212\ sl \--|
D ---------------------------------|-0-0---0-12--0-0---0-1212\ \\ \--|
                                   | m m   m     m m   m             |
D -0-0-3-3-6-6-6-0-0-3-3-3-6-6-6-6-|-0-0-3-3-6-6-6-0-0-3-3-3-6-6-6-6-|
                


e ---------------------------------|---------------------------------|
B ---------------------------------|---------------------------------|
G -12------------------------------|---------------------------------|
D ---------------------------------|-12------------------------------|
A ---------------------------------|---------------------------------|
D ---------------------------------|---------------------------------|
                                   |                                 |
e ---------------------------------|---------------------------------|
B ---------------------------------|---------------------------------|
G ---------------------------------|---------------------------------|
D ---------------------------------|-0-0---0-12--0-0---0-1212\ \\ \--|
A ---------------------------------|-0-0---0-12--0-0---0-1212\ sl \--|
D ---------------------------------|-0-0---0-12--0-0---0-1212\ \\ \--|
                                   | m m   m     m m   m             |
D -0-0-3-3-6-6-6-0-0-3-3-3-6-6-6-6-|-0-0-3-3-6-6-6-0-0-3-3-3-6-6-6-6-|



e ---------------------------------|---------------------------------|
B ---------------------------------|---------------------------------|
G -12------------------------------|---------------------------------|
D ---------------------------------|-12------------------------------|
A ---------------------------------|---------------------------------|
D ---------------------------------|---------------------------------|
                                   |                                 |
e ---------------------------------|---------------------------------|
B ---------------------------------|---------------------------------|
G ---------------------------------|-----------------------bend------|
D ---------------------------------|-0-0---0-12--0-0---0-12//\\------|
A ---------------------------------|-0-0---0-12--0-0---0-12//\\------|
D ---------------------------------|-0-0---0-12--0-0---0-12//\\------|
                                   | m m   m     m m   m             |
D -0-0-3-3-6-6-6-0-0-3-3-3-6-6-6-6-|-0-0-3-3-6-6-6-0-0-3-3-3-6-6-6-6-|



e ---------------------------------|---------------------------------|
B ---------------------------------|---------------------------------|
G -12------------------------------|---------------------------------|
D ---------------------------------|-12------------------------------|
A ---------------------------------|---------------------------------|
D ---------------------------------|---------------------------------|
                                   |                                 |
e ---------------------------------|---------------------------------|
B ---------------------------------|---------------------------------|
G ---------------------------------|---------------------------------|
D ---------------------------------|-0-0---0-12--0-0---0-1212\ \\ \--|
A ---------------------------------|-0-0---0-12--0-0---0-1212\ sl \--|
D ---------------------------------|-0-0---0-12--0-0---0-1212\ \\ \--|
                                   | m m   m     m m   m             |
D -0-0-3-3-6-6-6-0-0-3-3-3-6-6-6-6-|-0-0-3-3-6-6-6-0-0-3-3-3-6-6-6-6-|



Chorus:

(guit 1 & 2)
e ---------------------------------|
B ---------------------------------|
G ---------------------------------|
D -0-0-3-3-6-6-6-0-0-0-3-3-6-------|
A -0-0-3-3-6-6-6-0-0-0-3-3-6-------|
D -0-0-3-3-6-6-6-0-0-0-3-3-6-------|
                                   |
D -0-0-3-3-6-6-6-0-0-0-3-3-6-------| x4



Bridge:

(guit 1 & 2 play slight variations)
e ---------------------------------|---------|
B ---------------------------------|---------|
G ---------------------------------|---------|
D -12------10--------5---5-5-5-8---|-8-1010--|
A -12------10--------5---5-5-5-8---|-8-1010--|
D -12------10--------5---5-5-5-8---|-8-1010--|
                                   |         |
D -1212121210--1010105---5-5-5-8---|-8-1010--|



e ---------------------------------|---------|
B ---------------------------------|---------|
G ---------------------------------|---------|
D -0-0-0-0-3---3-3-3-5---5-5-5-10--|-101010--|
A -0-0-0-0-3---3-3-3-5---5-5-5-10--|-101010--|
D -0-0-0-0-3---3-3-3-5---5-5-5-10--|-101010--|
                                   |         |
D -0-0-0-0-3---3-3-3-5---5-5-5-10--|-101010--|


Lyrics:

And I have seen what your children see
All these nuns are pregnant dance in kerosene
Stand defiled and dewombed
Unreconciled flooded girls at the back of my window

I don't sleep 

Father sees what baby breeds
Through the windshot windows that torture freely
I can't see what the day light breeds
All the fattening mothers and their tortured sexing

I don't sleep
Tired
Tied up
Tired
Tied up 

Don't eat don't sleep don't dream in America
Don't work don't walk don't wake in America
            
Submit corrections


        I Don't Sleep lessons Hard to play? Try these video lessons and learn fast I Don't Sleep lessons
        
↑ Back to top | Tablatures and chords for acoustic guitar and electric guitar, ukulele, drums are parodies/interpretations of the original songs. You may use it for private study, scholarship, research or language learning purposes only