» » »

Amen - I Don't Sleep Bass

Artists:  A B C D E F G H I J K L M N O P Q R S T U V W X Y Z # 

I Don't Sleep Bass

(ver. 1) Click to play this song!
Amen
 Rating:
4/5 (4 votes)

 I Don't Sleep lessons Tabs too difficult? Try these video lessons and learn fast
 
                Tuning: D,A,D,G

INTRO
A|-------------------|
D|-3h6-6-6-0-3h6-6-6-|

then
A|----------------------------------|         A|---------------------|
D|--0-0-3-3-6-6-6-0-0-0-3-3-6-6-6-6-| x7 then D|-0-0-3-3-6-6-6-0-0-3-|

VERSE
A|----------------------------------|
D|-0-0-3-3-6-6-6-0-0-0-3-3-6-6-6-6--| x8

CHORUS
A|---------------------------|
D|-0-0-3-3-6-6-6-0-0-0-3-3-6-| x4

VERSE
A|----------------------------------|         A|---------------------|
D|--0-0-3-3-6-6-6-0-0-0-3-3-6-6-6-6-| x3 then D|-0-0-3-3-6-6-6-0-0-3-|

A|----------------------------------|
D|-0-0-3-3-6-6-6-0-0-0-3-3-6-6-6-6--| x8

CHORUS
A|---------------------------|         A|---------------------------------|
D|-0-0-3-3-6-6-6-0-0-0-3-3-6-| x3 then D|-0-0-3-3-6-6-6-0-0-0-3-3-8-8-8-8-|

A|---------------------------|
D|-0-0-3-3-6-6-6-0-0-0-3-3-6-| x4

REFRAIN
A|-------------------------------|
D|-00000/33333/55555/888/101010/-| (tenth fret) x4

OUTRO
A|-------------------------|         A|-------------------------------|
D|-0-0-3-3-6-6-6-0-0-3-3-6-| x3 then D|-0-0-3-3-6-6-6-0-0-3-3-6-6-6-0-|
            
Submit corrections


        I Don't Sleep lessons Hard to play? Try these video lessons and learn fast I Don't Sleep lessons
        
↑ Back to top | Tablatures and chords for acoustic guitar and electric guitar, ukulele, drums are parodies/interpretations of the original songs. You may use it for private study, scholarship, research or language learning purposes only