» » »

Amen - I Don't Sleep Tabs

Artists:  A B C D E F G H I J K L M N O P Q R S T U V W X Y Z # 

I Don't Sleep Tabs

(ver. 1) Click to play this song!
Amen
 Rating:
4/5 (4 votes)

 I Don't Sleep lessons Tabs too difficult? Try these video lessons and learn fast
 
                Drop D tuning

I waited ages for someone to tab this, then gave up waiting and just tabbed it, It's quite simple, If ya' 
know, you're in  the mood for Amen

Music (c):1999 Amen

Eirst Semi-Riff
A:---------------------------
B:---------------------------
G:---------------------------
D:0-7-7-7-6-0-7-7-7-6
A:0-5-5-5-6-0-5-5-5-6
D:0---------6-0----------6

the rest of the intro is just bass and feedback


Verse:
E:15^-----15^------15^----15^----15^----15^----
B:-----15^-----15^-----15^-----15^-----15^--------
G:------------------------------------------------------------
D:------------------------------------------------------------
A:------------------------------------------------------------
D:------------------------------------------------------------

Chorus:
E:------------------------------------------------------------------------------------------------------------------------------------------
------------------
B:------------------------------------------------------------------------------------------------------------------------------------------
------------------
G:------------------------------------------------------------------------------------------------------------------------------------------
------------------
D:0-0-3-3-5-5-5-0-0-3-3-5-------0-0-3-3-5-5-5-0-0-3-3-5-------0-0-3-3-5-5-5-0-0-3-3-5-------0-0-3-3-5-5-5-0-0-
3-3-5-------
A:0-0-3-3-5-5-5-0-0-3-3-5-------0-0-3-3-5-5-5-0-0-3-3-5-------0-0-3-3-5-5-5-0-0-3-3-5-------0-0-3-3-5-5-5-0-0-
3-3-5-------
D:0-0-3-3-5-5-5-0-0-3-3-5-------0-0-3-3-5-5-5-0-0-3-3-5-------0-0-3-3-5-5-5-0-0-3-3-5-------0-0-3-3-5-5-5-0-0-
3-3-5-------

Post Chorus
E:3------2------4-----6------8
B:----------------------------------
G:----------------------------------
D:-----------------------------------
A:-----------------------------------
E:------------------------------------

Verse:
E:15^-----15^------15^----15^----15^----15^----
B:-----15^-----15^-----15^-----15^-----15^--------
G:------------------------------------------------------------
D:------------------------------------------------------------
A:------------------------------------------------------------
D:------------------------------------------------------------

Chorus:
E:------------------------------------------------------------------------------------------------------------------------------------------
------------------
B:------------------------------------------------------------------------------------------------------------------------------------------
------------------
G:------------------------------------------------------------------------------------------------------------------------------------------
------------------
D:0-0-3-3-5-5-5-0-0-3-3-5-------0-0-3-3-5-5-5-0-0-3-3-5-------0-0-3-3-5-5-5-0-0-3-3-5-------0-0-3-3-5-5-5-0-0-
3-3-5-------
A:0-0-3-3-5-5-5-0-0-3-3-5-------0-0-3-3-5-5-5-0-0-3-3-5-------0-0-3-3-5-5-5-0-0-3-3-5-------0-0-3-3-5-5-5-0-0-
3-3-5-------
D:0-0-3-3-5-5-5-0-0-3-3-5-------0-0-3-3-5-5-5-0-0-3-3-5-------0-0-3-3-5-5-5-0-0-3-3-5-------0-0-3-3-5-5-5-0-0-
3-3-5-------

Then the Chorus riff again for ‘Tired........Tied-Up’

Coda:
E:------------------------------------------------------------------------------------------------------------------------
B:------------------------------------------------------------------------------------------------------------------------
G:------------------------------------------------------------------------------------------------------------------------
D:0------3------3/5------5/8--8/10--0------3------3/5------5/8--8/10--0------3------3/5------5/8--8/10--
A:0------3------3/5------5/8--8/10--0------3------3/5------5/8--8/10--0------3------3/5------5/8--8/10--
D:0------3------3/5------5/8--8/10--0------3------3/5------5/8--8/10--0------3------3/5------5/8--8/10--

Last bit:
E:------------------------------------------------------------------------------------------------------------------------------------------
-------------------------
B:------------------------------------------------------------------------------------------------------------------------------------------
-------------------------
G:------------------------------------------------------------------------------------------------------------------------------------------
--------------------------
D:0-0-3-3-5-5-5-0-0-3-3-5-----------------0-0-3-3-5-5-5-0-0-3-3-5-------0-0-3-3-5-5-5-0-0-3-3-5-------0-0-3-3-5-
5-5-0-0-3-3-5--1-0
A:0-0-3-3-5-5-5-0-0-3-3-5-----------------0-0-3-3-5-5-5-0-0-3-3-5-------0-0-3-3-5-5-5-0-0-3-3-5-------0-0-3-3-5-
5-5-0-0-3-3-5--1-0
D:0-0-3-3-5-5-5-0-0-3-3-5-----------------0-0-3-3-5-5-5-0-0-3-3-5-------0-0-3-3-5-5-5-0-0-3-3-5-------0-0-3-3-5-
5-5-0-0-3-3-5--1-0
            
Submit corrections


        I Don't Sleep lessons Hard to play? Try these video lessons and learn fast I Don't Sleep lessons
        
↑ Back to top | Tablatures and chords for acoustic guitar and electric guitar, ukulele, drums are parodies/interpretations of the original songs. You may use it for private study, scholarship, research or language learning purposes only