» » »

All That Remains - Six Bass

Artists:  A B C D E F G H I J K L M N O P Q R S T U V W X Y Z # 

Six Bass

(ver. 3) Click to play this song!
All That Remains
 Rating:
4/5 (4 votes)

 Six lessons Tabs too difficult? Try these video lessons and learn fast
 
                This is my first tab, so please e-mail with corrections. I hope you like it!


Drop D


Intro x2
G---------------------------------------------|
D---------------------------------------------|
A---------------------------------------------|
D---8~-----10~-------12~----------------------|

x3
G--------------------------------------------------------------|
D--------------------------------------------------------------|
A--------------------------------------------------------------|
D--8888881010101010101010121215151515141414141212121212121212--|


G---------------------------------------------------------------------------------|
D---------------------------------------------------------------------------------|
A---------------------------------------------------------------------------------|
D—888888101010101010101012121515151514141414000-----------------------------------|

Verse			x2	 x2
G-------------------------------------||---------------------|
D-------------------------------------||---------------------|     x2
A-------------------------------------||---------------------|
D-0-0-00-0-0-00-0-0-00-0-0-00-||8-8-88-8-8-88-8-8-88-8-8-88--|

Chorus x4
G-----------------------------------------------|
D-----------------------------------------------|
A-----------------------------------------------|
D--7-5-7-0-0-7-5-7-0-0-0-0-00-0-0---------------|

Verse			x2	 x2
G-------------------------------------||---------------------|
D-------------------------------------||---------------------|     x2
A-------------------------------------||---------------------|
D-0-0-00-0-0-00-0-0-00-0-0-00-||8-8-88-8-8-88-8-8-88-8-8-88--|

Chorus x4
G-----------------------------------------------|
D-----------------------------------------------|
A-----------------------------------------------|
D--7-5-7-0-0-7-5-7-0-0-0-0-00-0-0---------------|

Bridge x6

G-------------------------|
D-------------------------|
A-------------------------|
D---8~--10~--12~----------|

x6
G-----------------------------------------------------------------|
D-----------------------------------------------------------------|
A-----------------------------------------------------------------|
D---8~--10~---12-10-12-0-0-12-10-12-0-0-0-0-12-10-----------------|

Chorus x4
G-----------------------------------------------|
D-----------------------------------------------|
A-----------------------------------------------|
D--7-5-7-0-0-7-5-7-0-0-0-0-00-0-0---------------|


Outro x3

x3
G--------------------------------------------------------------|
D--------------------------------------------------------------|
A--------------------------------------------------------------|
D--8888881010101010101010121215151515141414141212121212121212--|

x1
G---------------------------------------------------------------------------|
D---------------------------------------------------------------------------|
A---------------------------------------------------------------------------|
D--8888881010101010101010121215151515141414140-0-0--------------------------|
            
Submit corrections


        Six lessons Hard to play? Try these video lessons and learn fast Six lessons
        
↑ Back to top | Tablatures and chords for acoustic guitar and electric guitar, ukulele, drums are parodies/interpretations of the original songs. You may use it for private study, scholarship, research or language learning purposes only