» » »

All That Remains - Six Bass

Artists:  A B C D E F G H I J K L M N O P Q R S T U V W X Y Z # 

Six Bass

(ver. 2) Click to play this song!
All That Remains
 Rating:
4/5 (4 votes)

 Six lessons Tabs too difficult? Try these video lessons and learn fast
 
                Intro
G|--------------|X2
D|--------------|
A|-1----3-------|
E|-----------0~-|

G|-------------------------------|X2
D|-------------------------------|
A|-----3-------5-------5-7-5-3-5-|
E|-1-3---3-1-5---5-3-5-----------|

G|----------------------------------------------|X2
D|----------------------------------------------|
A|-------333---------555---------555777555333555|
E|-111333---333111555---555333555---------------|

Verse 1
G|-----------------|X2
D|-----------------|
A|-----------------|
E|000-000-000-000--|

G|-----------------|X2
D|-----------------|
A|-----------------|
E|999-999-999-999--|

G|---------------|X4
D|---------------|
A|---------------|
E|757007570000000|

Verse 2
G|-----------------|X2
D|-----------------|
A|-----------------|
E|000-000-000-000--|

G|-----------------|X2
D|-----------------|
A|-----------------|
E|999-999-999-999--|
               X3
G|---------------|-----------------|--------|
D|---------------|-----------------|--------|
A|---------------|---------35686530|--------|
E|757007570000000|757007570--------|757--757|

Bridge
G|---------------|X2
D|---------------|
A|1~-3~-5~-------|
E|---------------|

G|---------------------|X6
D|--3-----5-----7-535--|
A|1---1/3---3/5--------|
E|---------------------|

G|--------------------------------|X6
D|--3-----5-----------------------|
A|1---1/3---33-757007570000000----|
E|--------------------------------|
               X3
G|---------------|-----------------|--------|
D|---------------|-----------------|--------|
A|---------------|---------35686530|--------|
E|757007570000000|757007570--------|757--757|

G|----------------------------------------------|X2
D|----------------------------------------------|
A|-------333---------555---------555777555333555|
E|-111333---333111555---555333555---------------|
            
Submit corrections


        Six lessons Hard to play? Try these video lessons and learn fast Six lessons
        
↑ Back to top | Tablatures and chords for acoustic guitar and electric guitar, ukulele, drums are parodies/interpretations of the original songs. You may use it for private study, scholarship, research or language learning purposes only