» » »

All That Remains - Six Tabs

Artists:  A B C D E F G H I J K L M N O P Q R S T U V W X Y Z # 

Six Tabs

(ver. 2) Click to play this song!
All That Remains
 Rating:
4/5 (4 votes)

 Six lessons Tabs too difficult? Try these video lessons and learn fast
 
                Tuning
Drop D
D A D G B e

I tabbed this out for one guitar, but its for two guitars.
I think you guys can figure out the harmonies.


Intro
e|----------------------------------------------------|
B|----------3------------5--------8-------8------8----|
G|-3----------3--5--------5---------------------------|
D|-3-------3-----5------5----7-10----7-10---7-10------|
A|-1--11111------3-33333------------------------------|
D|----------------------------------------------------|

e|----------------------------------------------------|
B|------8-------8-------------------------------------|
G|----------------------------------------------------|
D|-7-10----7-10---------------------------------------|
A|----------------------------------------------------|
D|----------------------------------------------------|

e|----------------------------------------------------|
B|----------3------------5--------8-------8------8----|
G|-3----------3--5--------5---------------------------|
D|-3-------3-----5------5----7-10----7-10---7-10------|
A|-1--11111------3-33333------------------------------|
D|----------------------------------------------------|

e|----------------------------------------------------|
B|------8-------8-------------------------------------|
G|----------------------------------------------------|
D|-7-10----7-10---------------------------------------|
A|----------------------------------------------------|
D|----------------------------------------------------|

e|----------------------------------------------------|
B|-------------------------------------6666-5555-8888-|
G|---------5555------------7777-----------------------|
D|-----3333----3333----5555----5555-------------------|
A|-1111------------3333------------5555---------------|
D|----------------------------------------------------|

e|----------------------------------------------------|
B|-6666-5555-6~---------------------------------------|
G|------------------------5555------------7777--------|
D|--------------------3333----3333----5555----5555----|
A|----------------1111------------3333----------------|
D|----------------------------------------------------|

e|----------------------------------------------------|
B|-----6666-5555-8888-6666-5555-----------------------|
G|-----------------------------7777-5555--------------|
D|----------------------------------------------------|
A|-5555-----------------------------------------------|
D|----------------------------------------------------|

e|----------------------------------------------------|
B|-------------------------------------6666-5555-8888-|
G|---------5555------------7777-----------------------|
D|-----3333----3333----5555----5555-------------------|
A|-1111------------3333------------5555---------------|
D|----------------------------------------------------|

e|----------------------------------------------------|
B|-6666-5555-6~---------------------------------------|
G|------------------------5555------------7777--------|
D|--------------------3333----3333----5555----5555----|
A|----------------1111------------3333----------------|
D|----------------------------------------------------|

e|----------------------------------------------------|
B|-----6666-5555-8888---6-5---------------------------|
G|--------------------------7-5-7-5-------------------|
D|----------------------------------8-7---------------|
A|-5555-----------------------------------------------|
D|----------------------------------------------------|

Verse 1
e|----------------------------------------------------|
B|----------------------------------------------------|
G|----------------------------------------------------|
D|-0-------------------------5---7--------------------|
A|-0--------------------------------------------------|
D|-0-0-000-0-0-000-0-0-000-0---0----------------------|

e|----------------------------------------------------|
B|----------------------------------------------------|
G|----------------------------------------------------|
D|-0-------------------------5---7--------------------|
A|-0--------------------------------------------------|
D|-0-0-000-0-0-000-0-0-000-0---0----------------------|

e|----------------------------------------------------|
B|----------------------------------------------------|
G|----------------------------------------------------|
D|-8--------------------------------------------------|
A|-8-------------------------7---8--------------------|
D|-8-8-888-8-8-888-8-8-888-8---8----------------------|

e|----------------------------------------------------|
B|----------------------------------------------------|
G|----------------------------------------------------|
D|-8--------------------------------------------------|
A|-8-------------------------7---8--------------------|
D|-8-8-888-8-8-888-8-8-888-8---8----------------------|

e|----------------------------------------------------|
B|----------------------------------------------------|
G|----------------------------------------------------|
D|-0-------------------------5---7--------------------|
A|-0--------------------------------------------------|
D|-0-0-000-0-0-000-0-0-000-0---0----------------------|

e|----------------------------------------------------|
B|----------------------------------------------------|
G|----------------------------------------------------|
D|-0-------------------------5---7--------------------|
A|-0--------------------------------------------------|
D|-0-0-000-0-0-000-0-0-000-0---0----------------------|

e|----------------------------------------------------|
B|----------------------------------------------------|
G|----------------------------------------------------|
D|-8--------------------------------------------------|
A|-8-------------------------7---8--------------------|
D|-8-8-888-8-8-888-8-8-888-8---8----------------------|

e|----------------------------------------------------|
B|----------------------------------------------------|
G|----------------------------------------------------|
D|-8--------------------------*pickscratch*-----------|
A|-8--------------------------------------------------|
D|-8-8-888-8-8-888-8-8-888----------------------------|

Chorus 1
e|----------------------------------------------------|
B|----------------------------------------------------|
G|----------------------------------------------------|
D|-7-5-7-0-0-7-5-7-0-0-0-0-000-0-0--------------------|
A|-7-5-7-0-0-7-5-7-0-0-0-0-000-0-0--------------------|
D|-7-5-7-0-0-7-5-7-0-0-0-0-000-0-0--------------------|

e|----------------------------------------------------|
B|----------------------------------------------------|
G|----------------------------------------------------|
D|-7-5-7-0-0-7-5-7-0-0-0-0-000-0-0--------------------|
A|-7-5-7-0-0-7-5-7-0-0-0-0-000-0-0--------------------|
D|-7-5-7-0-0-7-5-7-0-0-0-0-000-0-0--------------------|

e|----------------------------------------------------|
B|----------------------------------------------------|
G|----------------------------------------------------|
D|-7-5-7-0-0-7-5-7-0-0-0-0-000-0-0--------------------|
A|-7-5-7-0-0-7-5-7-0-0-0-0-000-0-0--------------------|
D|-7-5-7-0-0-7-5-7-0-0-0-0-000-0-0--------------------|

e|----------------------------------------------------|
B|----------------------------------------------------|
G|----------------------------------------------------|
D|-7-5-7-0-0-7-5-7-0-0-0-0-000-0-0--------------------|
A|-7-5-7-0-0-7-5-7-0-0-0-0-000-0-0--------------------|
D|-7-5-7-0-0-7-5-7-0-0-0-0-000-0-0--------------------|

Verse 2
e|----------------------------------------------------|
B|----------------------------------------------------|
G|----------------------------------------------------|
D|-0-------------------------5---7--------------------|
A|-0--------------------------------------------------|
D|-0-0-000-0-0-000-0-0-000-0---0----------------------|

e|----------------------------------------------------|
B|----------------------------------------------------|
G|----------------------------------------------------|
D|-0-------------------------5---7--------------------|
A|-0--------------------------------------------------|
D|-0-0-000-0-0-000-0-0-000-0---0----------------------|

e|----------------------------------------------------|
B|----------------------------------------------------|
G|----------------------------------------------------|
D|-8--------------------------------------------------|
A|-8-------------------------7---8--------------------|
D|-8-8-888-8-8-888-8-8-888-8---8----------------------|

e|----------------------------------------------------|
B|----------------------------------------------------|
G|----------------------------------------------------|
D|-8--------------------------*pickscratch*-----------|
A|-8--------------------------------------------------|
D|-8-8-888-8-8-888-8-8-888----------------------------|

GTR I
e|----------------------------------------------------|
B|----------------------------------------------------|
G|----------------------------------------------------|
D|-00-7p0h8p0h5p0h7p0h3p0-555-7-----------------------|
A|----------------------------------------------------|
D|----------------------------------------------------|

GTR II
e|----------------------------------------------------|
B|----------------------------------------------------|
G|----------------------------------------------------|
D|-0--------------------------------------------------|
A|-0--------------------------------------------------|
D|-0--------------------------------------------------|

GTR I
e|----------------------------------------------------|
B|----------------------------------------------------|
G|----------------------------------------------------|
D|-00-7p0h8p0h5p0h7p0h3p0-5-3-2-0---------------------|
A|----------------------------------------------------|
D|----------------------------------------------------|

GTR II
e|----------------------------------------------------|
B|----------------------------------------------------|
G|----------------------------------------------------|
D|-0--------------------------------------------------|
A|-0--------------------------------------------------|
D|-0--------------------------------------------------|

GTR I
e|----------------------------------------------------|
B|----------------------------------------------------|
G|----------------------------------------------------|
D|-00-7p0h8p0h5p0h7p0h3p0-555-7-----------------------|
A|----------------------------------------------------|
D|----------------------------------------------------|

GTR II
e|----------------------------------------------------|
B|----------------------------------------------------|
G|----------------------------------------------------|
D|-8--------------------------------------------------|
A|-8--------------------------------------------------|
D|-8--------------------------------------------------|

GTR I
e|----------------------------------------------------|
B|----------------------------------------------------|
G|----------------------------------------------------|
D|-00-7p0h8p0h5p0h7p0h3p0-5-3-2-0---------------------|
A|----------------------------------------------------|
D|----------------------------------------------------|

GTR II
e|----------------------------------------------------|
B|----------------------------------------------------|
G|----------------------------------------------------|
D|-8--------------------------------------------------|
A|-8--------------------------------------------------|
D|-8--------------------------------------------------|

Chorus 2
e|----------------------------------------------------|
B|----------------------------------------------------|
G|----------------------------------------------------|
D|-7-5-7-0-0-7-5-7-0-0-0-0-000-0-0--------------------|
A|-7-5-7-0-0-7-5-7-0-0-0-0-000-0-0--------------------|
D|-7-5-7-0-0-7-5-7-0-0-0-0-000-0-0--------------------|

e|----------------------------------------------------|
B|----------------------------------------------------|
G|----------------------------------------------------|
D|-7-5-7-0-0-7-5-7-0-0-0-0-000-0-0--------------------|
A|-7-5-7-0-0-7-5-7-0-0-0-0-000-0-0--------------------|
D|-7-5-7-0-0-7-5-7-0-0-0-0-000-0-0--------------------|

e|----------------------------------------------------|
B|----------------------------------------------------|
G|----------------------------------------------------|
D|-7-5-7-0-0-7-5-7-0-0-0-0-000-0-0--------------------|
A|-7-5-7-0-0-7-5-7-0-0-0-0-000-0-0--------------------|
D|-7-5-7-0-0-7-5-7-0-0-0-0-000-0-0--------------------|

e|----------------------------------------------------|
B|----------------------------------------------------|
G|----------------------------------------------------|
D|-7-5-7-0-0------------------------------------------|
A|-7-5-7-0-0-------1-0--------------------------------|
D|-7-5-7-0-0-0-2-3-----5-3-5-3-2-0--------------------|

e|----------------------------------------------------|
B|----------------------------------------------------|
G|----------------------------------------------------|
D|-7-5-7-0-0-7-5-7-0-0-0-0-000-0-0--------------------|
A|-7-5-7-0-0-7-5-7-0-0-0-0-000-0-0--------------------|
D|-7-5-7-0-0-7-5-7-0-0-0-0-000-0-0--------------------|

e|----------------------------------------------------|
B|----------------------------------------------------|
G|----------------------------------------------------|
D|-7-5-7-0-0-7-5-7-0-0-0-0-000-0-0--------------------|
A|-7-5-7-0-0-7-5-7-0-0-0-0-000-0-0--------------------|
D|-7-5-7-0-0-7-5-7-0-0-0-0-000-0-0--------------------|

e|----------------------------------------------------|
B|----------------------------------------------------|
G|----------------------------------------------------|
D|-7-5-7-0-0-7-5-7-0-0-0-0-000-0-0--------------------|
A|-7-5-7-0-0-7-5-7-0-0-0-0-000-0-0--------------------|
D|-7-5-7-0-0-7-5-7-0-0-0-0-000-0-0--------------------|

e|----------------------------------------------------|
B|----------------------------------------------------|
G|----------------------------------------------------|
D|-7-5-7----7-5-7-------------------------------------|
A|-7-5-7----7-5-7-------------------------------------|
D|-7-5-7----7-5-7-------------------------------------|

Solo
The solo is in D Aeolian. Just play in that key really fast.
If you don't know what D Aeolian is, then you probably couldn't
play the solo anyways.

Chorus 3
e|----------------------------------------------------|
B|----------------------------------------------------|
G|----------------------------------------------------|
D|-7-5-7-0-0-7-5-7-0-0-0-0-000-0-0--------------------|
A|-7-5-7-0-0-7-5-7-0-0-0-0-000-0-0--------------------|
D|-7-5-7-0-0-7-5-7-0-0-0-0-000-0-0--------------------|

e|----------------------------------------------------|
B|----------------------------------------------------|
G|----------------------------------------------------|
D|-7-5-7-0-0-7-5-7-0-0-0-0-000-0-0--------------------|
A|-7-5-7-0-0-7-5-7-0-0-0-0-000-0-0--------------------|
D|-7-5-7-0-0-7-5-7-0-0-0-0-000-0-0--------------------|

e|----------------------------------------------------|
B|----------------------------------------------------|
G|----------------------------------------------------|
D|-7-5-7-0-0-7-5-7-0-0-0-0-000-0-0--------------------|
A|-7-5-7-0-0-7-5-7-0-0-0-0-000-0-0--------------------|
D|-7-5-7-0-0-7-5-7-0-0-0-0-000-0-0--------------------|

e|----------------------------------------------------|
B|----------------------------------------------------|
G|----------------------------------------------------|
D|-7-5-7-0-0------------------------------------------|
A|-7-5-7-0-0-------1-0--------------------------------|
D|-7-5-7-0-0-0-2-3-----5-3-5-3-2-0--------------------|

e|----------------------------------------------------|
B|----------------------------------------------------|
G|----------------------------------------------------|
D|-7-5-7-0-0-7-5-7-0-0-0-0-000-0-0--------------------|
A|-7-5-7-0-0-7-5-7-0-0-0-0-000-0-0--------------------|
D|-7-5-7-0-0-7-5-7-0-0-0-0-000-0-0--------------------|

e|----------------------------------------------------|
B|----------------------------------------------------|
G|----------------------------------------------------|
D|-7-5-7-0-0-7-5-7-0-0-0-0-000-0-0--------------------|
A|-7-5-7-0-0-7-5-7-0-0-0-0-000-0-0--------------------|
D|-7-5-7-0-0-7-5-7-0-0-0-0-000-0-0--------------------|

e|----------------------------------------------------|
B|----------------------------------------------------|
G|----------------------------------------------------|
D|-7-5-7-0-0-7-5-7-0-0-0-0-000-0-0--------------------|
A|-7-5-7-0-0-7-5-7-0-0-0-0-000-0-0--------------------|
D|-7-5-7-0-0-7-5-7-0-0-0-0-000-0-0--------------------|

e|----------------------------------------------------|
B|----------------------------------------------------|
G|----------------------------------------------------|
D|----7--8-5-7-3-5-3-2-0------------------------------|
A|----8-10-7-8-5--------------------------------------|
D|-00-------------------------------------------------|

Outro
e|----------------------------------------------------|
B|-------------------------------------6666-5555-8888-|
G|---------5555------------7777-----------------------|
D|-----3333----3333----5555----5555-------------------|
A|-1111------------3333------------5555---------------|
D|----------------------------------------------------|

e|----------------------------------------------------|
B|-6666-5555-6~---------------------------------------|
G|------------------------5555------------7777--------|
D|--------------------3333----3333----5555----5555----|
A|----------------1111------------3333----------------|
D|----------------------------------------------------|

e|----------------------------------------------------|
B|-----6666-5555-8888-6666-5555-----------------------|
G|-----------------------------7777-5555--------------|
D|----------------------------------------------------|
A|-5555-----------------------------------------------|
D|----------------------------------------------------|

e|----------------------------------------------------|
B|-------------------------------------6666-5555-8888-|
G|---------5555------------7777-----------------------|
D|-----3333----3333----5555----5555-------------------|
A|-1111------------3333------------5555---------------|
D|----------------------------------------------------|

e|----------------------------------------------------|
B|-6666-5555-6~---------------------------------------|
G|------------------------5555------------7777--------|
D|--------------------3333----3333----5555----5555----|
A|----------------1111------------3333----------------|
D|----------------------------------------------------|

e|----------------------------------------------------|
B|-----6666-5555-8888---6-5---------------------------|
G|--------------------------7-5-7-5-------------------|
D|----------------------------------8---0~------------|
A|-5555---------------------------------0~------------|
D|--------------------------------------0~------------|


Enjoy!
            
Submit corrections


        Six lessons Hard to play? Try these video lessons and learn fast Six lessons
        
↑ Back to top | Tablatures and chords for acoustic guitar and electric guitar, ukulele, drums are parodies/interpretations of the original songs. You may use it for private study, scholarship, research or language learning purposes only