» » »

All That Remains - Six Tabs

Artists:  A B C D E F G H I J K L M N O P Q R S T U V W X Y Z # 

Six Tabs

(ver. 1) Click to play this song!
All That Remains
 Rating:
4/5 (4 votes)

 Six lessons Tabs too difficult? Try these video lessons and learn fast
 
                E--------------------------------------------------------------------------|
B--------------------------------------------------------------------------|
G--------------------------------------------------------------------------|
D---------10--------------------12------14-----14-----15-----15-----15-----|
A-8------8--8-10-----------10-8-------12-----12-----12-----12-----12-------|
D-8-88888-----10-1010101010---------12-----12-----12-----12-----12---------|
    ......        . . . . . . .      . .    . .    . .    . .    . .
(Play twice)

E--------------------------------------------------------------------------|
B--------------------------------------------------------------------------|
G--------------------------------------------------------------------------|
D---------10101010---------------------12121212----------------12121212----|
A-----8888----------------10101010-8888----------------12121212------------|
D-8888------------10101010---------------------12121212--------------------|
  ........ . . . . . . . . . . . . .... . . . . . . . . . . . . . . . .
E--------------------------------------------------------------------------|
B--------------------------------------------------------------------------|
G--------------------------------------------------------------------------|
D-14141414-17171717-15151515-14141414-15----then-17-15-14----12------------|
A-------------------(play all that 4x)--------------------17----15-12------|
D--------------------------------------------------------------------------|
   . . . .  . . . .  . . . .  . . . . 
E--------------------------------------------------------------------------|
B--------------------------------------------------------------------------|
G--------------------------------------------------------------------------|
D--------------------------------------------------------------------------|
A-0-------------------------10-12--------------------------------7-8-------|
D-0-0-000-0-0-000-0-0-000-0---0--(twice)8-8-888-8-8-888-8-8-888-8-8--------|
    . ... . . ... . . ... .   .         . . ... . . ... . . ... . .
  (twice)
E--------------------------------------------------------------------------|
B--------------------------------------------------------------------------|
G--------------------------------------------------------------------------|
D--------------------------------------------------------------------------|
A--------------------------10-12--------------------------------7-8--------|
D-0-0-000-0-0-000-0-0-000-0--0-(twice)8-8-888-8-8-888-8-8-888-8--8---/12\--|
  . . ... . . ... . . ... .  .        . . ... . . ... . . ... .  .
(twice)
E--------------------------------------------------------------------------|
B--------------------------------------------------------------------------|
G--------------------------------------------------------------------------|
D--------------------------------------------------------------------------|
A--------------------------------------------------------------------------|
D-7p5-7-0-0-7p5-7-0-0-0-0-000-0-0-(x4)-------------------------------------|
        . .       . . . . ... . .
E--------------------------------------------------------------------------|
B--------------------------------------------------------------------------|
G--------------------------------------------------------------------------|
D--------------------------------------------------------------------------|
A-0-------------------------10-12---------------------------------7-8------|
D-0-0-000-0-0-000-0-0-000-0---0---(twice)8-8-888-8-8-888-8-8-888-8-8-------|
    . ... . . ... . . ... .   .          . . ... . . ... . . ... . .
(twice)
E--------------------------------------------------------------------------|
B--------------------------------------------------------------------------|
G--------------------------------------------------------------------------|
D--------------------------------------------------------------------------|
A-----12-13-10-12-8-10-10-10-12-(twice)-----12-13-10-12-8-10-10-10-12------|
D-0-0---0--0--0--0-0--------------------8-8---8--8--8--8-8--(wice)---------|
  . .   .  .  .  . .                    . .   .  .  .  . .                 

 
            
Submit corrections


        Six lessons Hard to play? Try these video lessons and learn fast Six lessons
        
↑ Back to top | Tablatures and chords for acoustic guitar and electric guitar, ukulele, drums are parodies/interpretations of the original songs. You may use it for private study, scholarship, research or language learning purposes only