» » »

All That Remains - Six Bass

Artists:  A B C D E F G H I J K L M N O P Q R S T U V W X Y Z # 

Six Bass

(ver. 1) Click to play this song!
All That Remains
 Rating:
4/5 (4 votes)

 Six lessons Tabs too difficult? Try these video lessons and learn fast
 
                
Tuning:g d a d

intro
G|--------------------------------------------------------------------------|
D|--------------------------------------------------------------------------|
A|1---3----------------------1---3---5--------------------------------------|
D|--------0-------12\1------------------------------------------------------|

intro/outro                                                                              
                                                            x3
G|--------------------------------------------------------------------------|
D|--------------------------------------------------------------------------|
A|11111113333333/888777555555-----------------------------------------------|
D|--------------------------------------------------------------------------|

                                                                          x1
G|---------------------------------------------------------------------------|
D|---------------------------------------------------------------------------|
A|11111113333333/8887775-5---------------------------------------------------|
D|---------------------------------------------------------------------------|

verse1                                                                                   
                                                                                        
                                               x2
G|--------------------------------------------------------------------------|
D|--------------------------------------------------------------------------|
A|---------------------------------111 111 111 111 111 111 111 111----------|
D|000 000 000 000 000 000 000 000-------------------------------------------|

chorus
                                                                          x4
G|--------------------------------------------------------------------------|
D|--------------------------------------------------------------------------|
A|--------------------------------------------------------------------------|
D|64600--64600000-----------------------------------------------------------|

verse2
                                                                          x2
G|--------------------------------------------------------------------------|
D|--------------------------------------------------------------------------|
A|---------------------------------111 111 111 111 111 111 111 111----------|
D|000 000 000 000 000 000 000 000-------------------------------------------|


chorus
                                                                          x4
G|--------------------------------------------------------------------------|
D|--------------------------------------------------------------------------|
A|--------------------------------------------------------------------------|
D|64600--64600000-----------------------------------------------------------|

guitar solo
G|--------------------------------------------------------------------------|
D|--------------------------------------------------------------------------|
A|1---3---5------1---3---5--------------------------------------------------|
D|--------------------------------------------------------------------------|

                                                                          x4
G|--------------------------------------------------------------------------|
D|--------------------------------------------------------------------------|
A|18135-5-------------------------------------------------------------------|
D|--------------------------------------------------------------------------|

                                                                          x4
G|--------------------------------------------------------------------------|
D|--------------------------------------------------------------------------|
A|18135-5------------------------------18135-5------------------------------|
D|-------------646-00---646-000000------------------------------------------|

chorus
                                                                          x4
G|--------------------------------------------------------------------------|
D|--------------------------------------------------------------------------|
A|--------------------------------------------------------------------------|
D|6460-0--64600000000-------------------------------------------------------|

intro/outro                                                                              
                                                            x3
G|--------------------------------------------------------------------------|
D|--------------------------------------------------------------------------|
A|11111113333333/888777555555-----------------------------------------------|
D|--------------------------------------------------------------------------|

                                                                          x1
G|--------------------------------------------------------------------------|
D|--------------------------------------------------------------------------|
A|11111113333333/8887775-5--------------------------------------------------|
D|--------------------------------------------------------------------------|


| /  slide up
| \  slide down
| h  hammer-on
| p  pull-off
| ~  vibrato
| +  harmonic
| x  Mute note
============================================================================
            
Submit corrections


        Six lessons Hard to play? Try these video lessons and learn fast Six lessons
        
↑ Back to top | Tablatures and chords for acoustic guitar and electric guitar, ukulele, drums are parodies/interpretations of the original songs. You may use it for private study, scholarship, research or language learning purposes only