» » »

You Me At Six, Finders Keepers Tabs (ver.2)

Artists:  A B C D E F G H I J K L M N O P Q R S T U V W X Y Z # 

Finders Keepers Tabs (ver.2)

You Me At Six Tabs
 Rating:
4.2/5 (5 votes)
Finders Keepers lessons Tabs too difficult? Try these video lessons and learn fast
                -------------------------------------------------------------------------------
                             Finders Keepers - You Me At Six
-------------------------------------------------------------------------------

This is like my 9th You Me At Six tab.
Can you blame me? They're are amazing.

Tuning: Half step down (drop D)


Guitar 1 (lead)
Intro/Verse
e|---------------------------------------------------|
B|---------------------------------------------------|
G|---------------------------------------------------|
D|------9---------9----------------------------------|  x 4
A|--777---7---777---7--7-9------7-9-------7-9--7-9---|
D|----------------------------7-------777------------|

Chorus
e|-----------------------------------------------------------------------------------|
B|--12---12---12---12---12---12---12---12---10---10---10---10---10---10---10---10----|
G|-----9----9----9----9----9----9----9----9----9----9----9----9----9----9----9----9--|
D|-----------------------------------------------------------------------------------|
A|-----------------------------------------------------------------------------------|
D|-----------------------------------------------------------------------------------|

e|---------------------------------------------------------------------------|
B|--9---9---9---9---9---9---9---9---10---10---10---10---10---10---10---10----|
G|----9---9---9---9---9---9---9---9----9----9----9----9----9----9----9----9--|
D|---------------------------------------------------------------------------|
A|---------------------------------------------------------------------------|
E|---------------------------------------------------------------------------|


Verse 2
e|---------------------------------------------------|
B|---------------------------------------------------|
G|---------------------------------------------------|
D|------9---------9----------------------------------|  x 2
A|----7---7---777---7--7-9------7-9-------7-9--7-9---|
D|----------------------------7-------777------------|


e|---------------------------------------------------------------------------|
B|--12---12---12---12---10---10---10---10---9---9---9---9---7---7---7---7----|
G|-----9----9----9----9----9----9----9----9---9---9---9---9---9---9---9---9--|
D|---------------------------------------------------------------------------|
A|---------------------------------------------------------------------------|
D|---------------------------------------------------------------------------|

e|-------------------------------------------------------------|
B|--12---12---12---12---10---10---10---10---9---9---9---9---7--|
G|-----9----9----9----9----9----9----9----9---9---9---9---9----|
D|-------------------------------------------------------------|
A|-------------------------------------------------------------|
D|-------------------------------------------------------------|

Chorus
e|-----------------------------------------------------------------------------------|
B|--12---12---12---12---12---12---12---12---10---10---10---10---10---10---10---10----|
G|-----9----9----9----9----9----9----9----9----9----9----9----9----9----9----9----9--|
D|-----------------------------------------------------------------------------------|
A|-----------------------------------------------------------------------------------|
D|-----------------------------------------------------------------------------------|

e|---------------------------------------------------------------------------|
B|--9---9---9---9---9---9---9---9---10---10---10---10---10---10---10---10----|
G|----9---9---9---9---9---9---9---9----9----9----9----9----9----9----9----9--|
D|---------------------------------------------------------------------------|
A|---------------------------------------------------------------------------|
E|---------------------------------------------------------------------------|

e|-----------------------------------------------------------------------------------|
B|--12---12---12---12---12---12---12---12---10---10---10---10---10---10---10---10----|
G|-----9----9----9----9----9----9----9----9----9----9----9----9----9----9----9----9--|
D|-----------------------------------------------------------------------------------|
A|-----------------------------------------------------------------------------------|
D|-----------------------------------------------------------------------------------|

e|---------------------------------------------------------------------------|
B|--9---9---9---9---7---7---7---7---10---10---10---10---10---10---10---10----|
G|----9---9---9---9---9---9---9---9----9----9----9----9----9----9----9----9--|
D|---------------------------------------------------------------------------|
A|---------------------------------------------------------------------------|
E|---------------------------------------------------------------------------|


Bridge
e|----------------------------------------------------------------------------------------|
B|---12---12---12---12---11----11----11----11----10---10---10---10---10-9---------9-------|
G|------9----9----9----9----11----11----11----11----9----9----9----9------11-9-11---11-9--|
D|----------------------------------------------------------------------------------------| x3
A|----------------------------------------------------------------------------------------|
D|----------------------------------------------------------------------------------------|

e|--------------------------------------------------------------|
B|--12---12---12---12---11----11----11----11--------------------|
G|-----9----9----9----9----11----11----11----11---/14-13-12-\9--|
D|--------------------------------------------------------------|
A|------------------------------------------------/12-11-10-\7--|
D|--------------------------------------------------------------|

Pre-Chorus (same as chorus but palm muted)

Chorus

Outro (same as bridge)
e|---------------------------------------------------------------------------------------|
B|---12---12---12---12---11----11----11----11---10---10---10---10---10-9---------9-------|
G|------9----9----9----9----11----11----11----9----9----9----9----9------11-9-11---11-9--|
D|---------------------------------------------------------------------------------------| 
A|---------------------------------------------------------------------------------------|
D|---------------------------------------------------------------------------------------|

e|--------------------------------------------------------------|
B|--12---12---12---12---11----11----11----11--------------------|
G|-----9----9----9----9----11----11----11----11---/14-13-12-\9--|
D|--------------------------------------------------------------|
A|------------------------------------------------/12-11-10-\7--|
D|--------------------------------------------------------------|


Guitar 2 (Rhythm)
e|--------------------|     |------------|
B|--7~---7~---10-9----|     |------------|
G|--9~---9~--------9--|     |--99-9-9-8--|
D|--9~---9~-----------| x4  |--99-9-9-9--|
A|--7~---7~-----------|     |--77-7-7-7--|
D|-------7~-----------|     |------------|

E5
Finders keepers
No you don’t keep me in line
A5
I like secrets
Cause they keep me online
C#5
Oh others die hard
                     A5
But I’m too young to die 


e|------------------------------|
B|------------------------------|
G|--9-9-9--9-9-9----------------|
D|--9-9-9--9-9-9--7-7-7--7-7-7--| x2
A|--7-7-7--7-7-7--7-7-7--7-7-7--|
D|----------------7-7-7--7-7-7--|

F#5        A5            E5                 B5
So hard to take, feeding months of bills to break
   F#5       A5
Oh I love mistakes
        E5             B5
Especially ones you’ve made
(I bet you’re sorry)


E5
Finders keepers
No you don’t keep me in line
A5
I like secrets
Cause they keep me online
C#5
Oh others die hard
                     A5
But I’m too young to die

E5
Finders keepers
The whole thing is a lie
A5
You won’t find her
Cause she’s too hard to find
C#5         B5              A5
So my advice and only run a mile

                 E5
And have another drink
         F#5            A5
And then think this one over
                      E5       
You’ll dig yourself a grave
     F#5              A5
Everyday, when you’re sober
    E5          A5
You see, what I mean
        E5
At your best interest you’re all over 
E5          F#5      A5   A5  A5
me. I could never be what you need


e|--------0--0--|
B|--7--7--0--0--|
G|--9--9--6--4--|
D|--9--9--6--4--|
A|--7--7--4--2--|
D|-----7--------|


E5
Finders keepers
The whole thing is a lie
A5
You won’t find her
Cause she’s too hard to find
C#5         B5              A5
So my advice and only run a mile

      E5       F#m      A5
And I bet, you guess me right
(You guessed me, yes, you guessed me right)
  E5      F#m      A5 A5 A5
I bet you guess me right



| /  slide up
| \  slide down
| h  hammer-on
| p  pull-off
| ~  vibrato
| +  harmonic
| x  Mute note
===============================================================================
            
Submit corrections

comments powered by Disqus
↑ Back to top | You Me At Six Tabs for Finders Keepers. Lyrics for acoustic guitar and electric guitar. Tablatures and chords are parodies/interpretations of the original songs. You may use it for private study, scholarship, research or language learning purposes only