» » »

You Me At Six, Finders Keepers Tabs (ver.1)

Artists:  A B C D E F G H I J K L M N O P Q R S T U V W X Y Z # 

Finders Keepers Tabs (ver.1)

You Me At Six Tabs
 Rating:
4.4/5 (7 votes)
Finders Keepers lessons Tabs too difficult? Try these video lessons and learn fast
                Tuning: drop D

INTRO VERSE
Guitar 1 
e|-----------------------------|
B|-----------------------------|
G|-----------------------------|
D|------8---------8------------|  x 7
A|--666---6---666---6--6-8-----|
D|-----------------------------|
PM  ---       ---      -

e|-----------------------------|
B|-----------------------------|
G|------------8-8-8------------|
D|------8-----8-8-8------------|  x 1
A|--666---6---6-6-6------------|
D|-----------------------------|
PM  ---       


Guitar 2
e|---------------------|     
B|--6~---6~---9~-8~----|     
G|--8~---8~--------8~--|
D|--8----8-------------|  x4  
A|--6~---6~------------|     
D|-------6~------------|    




CHORUS
Guitar 1
e|-------------------------------------------|
B|--11---x8---9---x8----8---x8-----9---x8----|
G|-----8--------8---------8-----------8------|
D|-------------------------------------------|
A|-------------------------------------------|
D|-------------------------------------------|


Guitar 2
e|---------------------------------------|
B|---------------------------------------|
G|8--------------------------------------|
D|8--x16--6--------10--------6-----------|
A|6-------6--x16---10--x16---6--x16------|
D|--------6--------10--------6-----------|




VERSE (1st part)
Guitar 1
e|-------------------------------------------|
B|-11-1111-11--11-1111-11--9-99-9--9-99-9----|
G|-8--8-8--8---8--8-8--8---8-88-8--8-88-8----| X2
D|-------------------------------------------|
A|-------------------------------------------|
D|-------------------------------------------|


Guitar 2
e|---------------------------------------|
B|---------------------------------------|
G|8-88-8---8-88-8------------------------|
D|8-88-8---8-88-8---6-66-6---6-66-6------| X2
A|6-66-6---6-66-6---6-66-6---6-66-6------|
D|------------------6-66-6---6-66-6------|


(2nd part)
Guitar 1
e|---------------------------------------------------------|
B|---11----x4----9---x4----8----x4----9-8---------8--------|
G|------8---------8---------8-------------10-8-10---10-8---|
D|---------------------------------------------------------| 
A|---------------------------------------------------------|
D|---------------------------------------------------------|

e|-----------------------------------------|
B|---11----x4----9----x4----8----x4----9---|
G|------8----------8---------8-------------|
D|-----------------------------------------| 
A|-----------------------------------------|
D|-----------------------------------------|


Guitar 2
e|---------------------------------------|
B|---------------------------------------|
G|---------------------8-----------------|
D|--10--------6--------8--x8-----6-------|
A|--10--x8----6--x8----6---------6--x8---|
D|--10--------6------------------6-------|


e|---------------------------------------|
B|---------------------------------------|
G|---------------------8-----------------|
D|--10--------6--------8--x8-----6-------|
A|--10--x8----6--x8----6---------6-------|
D|--10--------6------------------6-------|



CHORUS
Guitar 1
e|-------------------------------------------|
B|--11---x8---9---x8----8---x8-----9---x8----|
G|-----8--------8---------8-----------8------|
D|-------------------------------------------|
A|-------------------------------------------|
D|-------------------------------------------|

e|----------------------------------------------------|
B|--11---x8---9---x8----8---x4----6---x4-----9---x8---|
G|-----8--------8---------8--------8----------8-------|
D|----------------------------------------------------|
A|----------------------------------------------------|
D|----------------------------------------------------|

Guitar 2
e|---------------------------------------|
B|---------------------------------------|
G|8--------------------------------------|
D|8--x16--6--------10--------6-----------|
A|6-------6--x16---10--x16---6--x16------|
D|--------6--------10--------6-----------|

e|----------------------------------------------|
B|----------------------------------------------|
G|8---------------------------------------------|
D|8--x16--6--------10-------8---------6---------|
A|6-------6--x16---10--x8---8--x8-----6--x16----|
D|--------6--------10-------8---------6---------|



BRIDGE
Guitar 1
e|----------------------------------------------------------------|
B|----------------------------------------------------------------|
G|--8-------10------13---------x3--8-------10--------13-12-10/8---|
D|--x--x8---x---x8--x---x16--------x--x8---x---x8----x--x--x--x---|
A|--6-------8-------11-------------6-------8---------11-10-8-/6---|
D|----------------------------------------------------------------|

Guitar 2
e|------------------------------------------------------|
B|------------------------------------------------------|
G|-------------------------x3---------------------------|
D|-1------3-------6--------------1-------3-------6-6-6--|
A|-1--X8--3--X8---6--X16---------1--x8---3--x8---6-6-6--|
D|-1------3-------6--------------1-------3-------6-6-6--|



PRE-CHORUS 
Guitar 1 (all palm muted)
e|-------------------------------------------|
B|--11---x8---9---x8----8---x8-----9---x8----|
G|-----8--------8---------8-----------8------|
D|-------------------------------------------|
A|-------------------------------------------|
D|-------------------------------------------|

Guitar 2
e|---------------------------------------|
B|---------------------------------------|
G|8~-------------------------------------|
D|8~------6~-------10~-------6~----------|
A|6~------6~-------10~-------6~----------|
D|--------6~-------10~-------6~----------|



CHORUS
Guitar 1
e|----------------------------------------------------|
B|--11---x8---9---x8----8---x4----6---x4-----9---x8---|
G|-----8--------8---------8--------8----------8-------|
D|----------------------------------------------------|
A|----------------------------------------------------|
D|----------------------------------------------------|


Guitar 2
e|----------------------------------------------|
B|----------------------------------------------|
G|8---------------------------------------------|
D|8--x16--6--------10-------8---------6---------|
A|6-------6--x16---10--x8---8--x8-----6--x16----|
D|--------6--------10-------8---------6---------|



OUTRO
Guitar 1
e|----------------------------------------------------------------|
B|----------------------------------------------------------------|
G|--8-------10------13---------x3--8-------10--------13-12-10/8---|
D|--x--x8---x---x8--x---x16--------x--x8---x---x8----x--x--x--x---|
A|--6-------8-------11-------------6-------8---------11-10-8-/6---|
D|----------------------------------------------------------------|

Guitar 2
e|------------------------------------------------------|
B|------------------------------------------------------|
G|-------------------------x3---------------------------|
D|-1------3-------6--------------1-------3-------6-6-6--|
A|-1--X8--3--X8---6--X16---------1--x8---3--x8---6-6-6--|
D|-1------3-------6--------------1-------3-------6-6-6--|
            
Submit corrections

comments powered by Disqus
↑ Back to top | You Me At Six Tabs for Finders Keepers. Lyrics for acoustic guitar and electric guitar. Tablatures and chords are parodies/interpretations of the original songs. You may use it for private study, scholarship, research or language learning purposes only