» » »

You Me At Six, Bite My Tongue Bass tabs (ver.1)

Artists:  A B C D E F G H I J K L M N O P Q R S T U V W X Y Z # 

Bite My Tongue Bass tabs (ver.1)

You Me At Six Tabs
 Rating:
3.7/5 (6 votes)
Bite My Tongue lessons Tabs too difficult? Try these video lessons and learn fast
1
                Bite My Tongue (feat. Oli Sykes)

 |----Guitar Intro---|

Lead in to Verse
G|-----|
D|-----|
A|-----|
E|-003-|

Verse 1 
G|-------------------|
D|-------------------|
A|-------------------|  x2
E|-00000000-222-3333-|

G|-----------------------------------|
D|-----------------------------------|
A|-3333333300000000-3333333300000----|
E|-------------------------------003-| 
Repeat Verse

Chorus
G|---------------------------------------------------|
D|---------------------------------------------------|
A|-------------------------33-3-333-33-00-0-000-5555-|
E|-00-0-000-00-33-3-333-33---------------------------|
        
G|---------------------------------------------------|
D|---------------------------------------------------|
A|-------------------------00-0-000-00-33-3-35553555-|
E|-00-0-000-00-33-3-333-33---------------------------|

Verse 2
G|-----------------------------------------|
D|-----------------------------------------|
A|-----------------------------------------|
E|-00-00-00-------------00-00-00-----------|

G|---------------------------------|
D|---------------------------------|
A|-3333333333333333000000000000-7--|
E|-------------------------------3-|

G|------------------------------------------|
D|----------754-54---------------754-54-----|
A|-----------------5/7------------------5/7-|
E|-00-00-00-------------00-00-00------------|

G|-----------------------------------------------|
D|-----------------------------------------------|
A|-3333333333333333000000000000-7----------------|
E|-------------------------------3/12-(ring out)-|

Chorus
G|---------------------------------------------------|
D|---------------------------------------------------|
A|-------------------------33-3-333-33-00-0-000-5555-|
E|-00-0-000-00-33-3-333-33---------------------------|
        
G|---------------------------------------------------|
D|---------------------------------------------------|
A|-------------------------00-0-000-00-33-3-35553555-|
E|-00-0-000-00-33-3-333-33---------------------------|

Bridge (Oli Sykes! :D )
G|----------------|
D|----------------|
A|----------------| x6
E|-0-0-(ring out)-|

G|-------------------|
D|-------------------|
A|-----55---555--555-| x8
E|-0-0-----0----0----|

Chorus
G|---------------------------------------------------|
D|---------------------------------------------------|
A|-------------------------33-3-333-33-00-0-000-5555-|
E|-00-0-000-00-33-3-333-33---------------------------|
        
G|---------------------------------------------------|
D|---------------------------------------------------|
A|-------------------------00-0-000-00-33-3-35553555-|
E|-00-0-000-00-33-3-333-33---------------------------|

Ending
G|-----------------|
D|-----------------|
A|-----------------|
E|-00-0-(ring out)-|

Enjoy! It's a fun song to play.
Please Rate :)
            
Submit corrections

comments powered by Disqus
↑ Back to top | You Me At Six Bass for Bite My Tongue. Lyrics for acoustic guitar and electric guitar. 1 Tablatures and chords are parodies/interpretations of the original songs. You may use it for private study, scholarship, research or language learning purposes only