» » »

Crash Tabs (ver.1)

Artists:  A B C D E F G H I J K L M N O P Q R S T U V W X Y Z # 

Crash Tabs (ver.1)

You Me At Six
Rating:
5/5 (2 votes)

Hard to play? Try these video lessons and learn fast.
                
[Intro]
e|-----5--| e|------------------------------------|
B|---3----| B|------------------------------------|
G|--------| G|------------------------------------|
D|-0------| D|-0-[x18]----------------------------|
A|--------| A|---------2-[x18]--0-[x18]-----------|
E|--------| E|--------------------------3-[x18]---|


[Verse]
e|-----5--| e|------------------------------------|
B|---3----| B|------------------------------------|
G|--------| G|------------------------------------|
D|-0------| D|-0-[x18]----------------------------|
A|--------| A|---------2-[x18]--0-[x18]-----------|
E|--------| E|--------------------------3-[x18]---|

[Pre-chorus 1]
e|-------------------------------------------3-------3----|
B|-------------------------------------------3-------3----|
G|-------------------------------------------4-------4----|
D|--------------------------------------------------------|
A|-2-2-2-2-2-2-2-2-2--5-5-5-5-5-5-5-5---------------------|
E|-------------------------------------3-3-3---3-3-3------|

[Verse 2]
e|-----5--| e|------------------------------------|
B|---3----| B|------------------------------------|
G|--------| G|------------------------------------|
D|-0------| D|-0-[x18]----------------------------|
A|--------| A|---------2-[x18]--0-[x18]-----------|
E|--------| E|--------------------------3-[x18]---|
 
[Pre-chorus 2]
e|-------------------------------------------3-------3----|
B|-------------------------------------------3-------3----|
G|-4-4-4-4-4-4-4-4-4--7-7-7-7-7-7-7-7--------4-------4----|
D|-4-4-4-4-4-4-4-4-4--7-7-7-7-7-7-7-7--5-5-5-5-5-5-5-5----|
A|-2-2-2-2-2-2-2-2-2--5-5-5-5-5-5-5-5--5-5-5-5-5-5-5-5----|
E|-------------------------------------3-3-3-3-3-3-3-3----|
 
[Chorus]
e|--------------------------------------------|
B|--------------------------------------------|
G|-77777777-44444444----------444444444-------|
D|-77777777-44444444-77777777-555555555--[x2]-|
A|-55555555-22222222-77777777-555555555-------|
E|-------------------55555555-333333333-------|

[Verse 3]
e|-----5--| e|------------------------------------| e|--------------|
B|---3----| B|------------------------------------| B|-7-5----------|
G|--------| G|------------------------------------| G|-----7-6-6--7-|
D|-0------| D|-0-[x18]----------------------------| D|--------------|
A|--------| A|---------2-[x18]--0-[x18]-----------| A|--------------|
E|--------| E|--------------------------3-[x18]---| E|--------------|
[Chorus 2]
e|--------------------------------------------|---|----5-|
B|--------------------------------------------|---|--3---|
G|-77777777-44444444----------444444444-------|-7-|------|
D|-77777777-44444444-77777777-555555555--[x4]-|-7-|-0----|
A|-55555555-22222222-77777777-555555555-------|-5-|------|
E|-------------------55555555-333333333-------|---|------|
            
Hard to play? Try these video lessons and learn fast. | Correct




comments powered by Disqus
↑ Back to top | Tablatures and chords are parodies/interpretations of the original songs. You may use it for private study, scholarship, research or language learning purposes only