» » »

Finders Keepers Tabs (ver.3)

Artists:  A B C D E F G H I J K L M N O P Q R S T U V W X Y Z # 

Finders Keepers Tabs (ver.3)

You Me At Six
Rating:
5/5 (6 votes)

Hard to play? Try these video lessons and learn fast.
                -------------------------------------------------------------------------------
                             Finders Keepers - Youmeatsix
-------------------------------------------------------------------------------

Tuning: Standard

guitar 1
e|-----------------------------------------------------------------------------|
B|-----------------------------------------------------------------------------|
G|8-88-8-8---------------------------------------------------------------------|
D|8-88-8-8-----6-66-6-6-------(x4)---------------------------------------------|
A|6-66-6-6-(x4)-6-66-6-6-------------------------------------------------------|
E|-------------4-44-4-4-(x4)---------------------------------------------------|

guitar 2
e|--------------------------------------------------------------------------|
B|----------------9--8-6----------------------------------------------------|
G|--------------------------------------------------------------------------|
D|--------------------------------------------------------------------------|
A|--------------------------------------------------------------------------|
E|--------------------------------------------------------------------------|

e|--------------------------------------------------------------------------------|
B|--------------------------------------------------------------------------------|
G|8-------------------------------------------------------------------------------|
D|8------6------10-----8-----6----------------------------------------------------|
A|6-(x16)-6------10-----8-----6---------------------------------------------------|
E|-------4-(x16)-8--(x8)-6-(x8)-4-(x16)-------------------------------------------|

e|--------------------------------------------------------------------------------|
B|--------------------------------------------------------------------------------|
G|8-88-8-8-----------------------------------------8------------------------------|
D|8-88-8-8-----6-66-6-6-------(x4)-----10-----6-----8-----8------(x2)-------------|
A|6-66-6-6-(x2)-6-66-6-6---------------10-----6-----6-(x8)-8----------------------|
E|-------------4-44-4-4-(x2)-----------8--(x8)-4-(x8)-------6-(x8)----------------|

e|--------------------------------------------------------------------------------|
B|--------------------------------------------------------------------------------|
G|8-------------------------------------------------------------------------------|
D|8------6------10-----8-----6---------------(x2)---------------------------------|
A|6-(x16)-6------10-----8-----6---------------------------------------------------|
E|-------4-(x16)-8--(x8)-6-(x8)-4-(x16)-------------------------------------------|

e|------------------------------------------------------------------------------|
B|------------------------------------------------------------------------------|
G|8-----10----------------------------------------------------------------------|
D|8-----10----6-------(x4)------------------------------------------------------|
A|6-(x8)-8-(x8)-6---------------------------------------------------------------|
E|------------4-(x16)-----------------------------------------------------------|


guitar 1
e|--------------------------------------------------------------------------|
B|--------------------------------------------------------------------------|
G|8–------------------------------------------------------------------------|
D|8---------------6---------------10-------8-------6------------------------|
A|6---------------6---------------10-------8-------6------------------------|
E|----------------4---------------8--------6-------4------------------------|

guitar 2
e|--------------------------------------------------------------------------|
B|--------------------------------------------------------------------------|
G|--------------------------------------------------------------------------|
D|--------------------------------------------------------------------------|
A|6666666666666666 ---------------------------------------------------------|
E|----------------4444444444444444-88888888-66666666-4444444444444444-------|


e|--------------------------------------------------------------------------------|
B|--------------------------------------------------------------------------------|
G|8-------------------------------------------------------------------------------|
D|8------6------10-----8-----6----------------------------------------------------|
A|6-(x16)-6------10-----8-----6---------------------------------------------------|
E|-------4-(x16)-8--(x8)-6-(x8)-4-(x16)-------------------------------------------|
            
Hard to play? Try these video lessons and learn fast. | Correct




comments powered by Disqus
↑ Back to top | Tablatures and chords are parodies/interpretations of the original songs. You may use it for private study, scholarship, research or language learning purposes only