» » »

Fireworks Tabs (ver.1)

Artists:  A B C D E F G H I J K L M N O P Q R S T U V W X Y Z # 

Fireworks Tabs (ver.1)

You Me At Six
Rating:
3/5 (4 votes)

Hard to play? Try these video lessons and learn fast.
                You Me At Six - Fireworks

I know, i know, there are two guitars but this is just one part and it may not be 
right but you get the basic idea =]

Tuning: Standard

Intro
e|-----------------------------------------------------------------------|
B|----7---7---7---7----4---4---4---4----7---7---7---7----6---6---6---6---|
G|------6---6---6---6----6---6---6---6----6---6---6---6----6---6---6---6-| x2
D|-----------------------------------------------------------------------|
A|-----------------------------------------------------------------------|
E|-----------------------------------------------------------------------|

Verse x2
e|-----------------------------------------------------------------------|
B|----7---7---7---7----4---4---4---4----7---7---7---7----6---6---6---6---|
G|------6---6---6---6----6---6---6---6----6---6---6---6----6---6---6---6-|
D|-----------------------------------------------------------------------|
A|-----------------------------------------------------------------------|
E|-----------------------------------------------------------------------|

e|-----------------------------------------------------------------------|
B|----7---7---7---7----4---4---4---4----7---7---7---7----9---9---9---9---|
G|------6---6---6---6----6---6---6---6----6---6---6---6----6---6---6---6-|
D|-----------------------------------------------------------------------|
A|-----------------------------------------------------------------------|
E|-----------------------------------------------------------------------|

Pre-Chorus
e|---------------------------------------|
B|----7---7---7---7----7---7---7---7-----|
G|------6---6---6---6----6---6---6---6---|
D|---------------------------------------|
A|---------------------------------------|
E|---------------------------------------|

Chorus
e|------------------------6666666666666666---|
B|----7777-9999-6666-7777-7777777777777777---|
G|----6666-6666-6666-6666-6666666666666666---|x2
D|-------------------------------------------|
A|-------------------------------------------|
E|-------------------------------------------|

Verse
e|-----------------------------------------------------------------------|
B|----7---7---7---7----4---4---4---4----7---7---7---7----6---6---6---6---|
G|------6---6---6---6----6---6---6---6----6---6---6---6----6---6---6---6-|
D|-----------------------------------------------------------------------|
A|-----------------------------------------------------------------------|
E|-----------------------------------------------------------------------|

e|-----------------------------------------------------------------------|
B|----7---7---7---7----4---4---4---4----7---7---7---7----6---6---6---6---|
G|------6---6---6---6----6---6---6---6----6---6---6---6----6---6---6---6-|
D|-----------------------------------------------------------------------|
A|-----------------------------------------------------------------------|
E|-----------------------------------------------------------------------|

e|----14-14-14-13-13-13--------------------------------|
B|----------------------14-14-16-16-16-14-14-14-16-16--|
G|-----------------------------------------------------| x3
D|-----------------------------------------------------|
A|-----------------------------------------------------|
E|-----------------------------------------------------|

Repeat Chorus

Bridge
e|---------6----------|
B|---9-7-----7---9-7--|
G|-------6-----6------| x6
D|--------------------|
A|--------------------|
E|--------------------|

e|--6-
B|--7-
G|--6-
D|----
A|----
E|----

e|--99999999-1414141414141414-9999999999999-1414141414141414--|
B|------------------------------------------------------------|
G|------------------------------------------------------------| x2
D|------------------------------------------------------------|
A|------------------------------------------------------------|
E|------------------------------------------------------------|

e|---------6----------|
B|---9-7-----7---9-7--|
G|-------6-----6------| x8
D|--------------------|
A|--------------------|
E|--------------------|

e|-------------------------6\--|
B|---6666-7777-9999-7777---7\--|
G|---6666-6666-6666-6666---6\--|
D|-----------------------------|
A|-----------------------------|
E|-----------------------------|
            
Hard to play? Try these video lessons and learn fast. | Correct




comments powered by Disqus
↑ Back to top | Tablatures and chords are parodies/interpretations of the original songs. You may use it for private study, scholarship, research or language learning purposes only