» » »

You Me At Six, Finders Keepers Bass tabs (ver.1)

Artists:  A B C D E F G H I J K L M N O P Q R S T U V W X Y Z # 

Finders Keepers Bass tabs (ver.1)

You Me At Six Tabs
Rating:
4/5 (3 votes)
Finders Keepers lessons Tabs too difficult? Try these video lessons and learn fast
                Key:
+ = Let ring
. = Stop


Verse 1:
|--------|--------|--------|--------|
|--------|--------|--------|--------|
|66666666|66666666|--------|--------|
|--------|--------|44444444|44444444|

|--------|--------|--------|--------|
|--------|--------|--------|--------|
|66666666|66666666|--------|--------|
|--------|--------|44444444|44444444|

|--------|--------|--------|--------|
|--------|--------|--------|--------|
|66666666|66666666|--------|--------|
|--------|--------|44444444|44444444|

|--------|--------|--------|--------|
|--------|--------|--------|--------|
|66666666|66666666|--------|--------|
|--------|--------|44444444|-4-4-4--|

Chorus:
|--------|--------|--------|--------|
|--------|--------|--------|--------|
|66666666|66666666|--------|--------|
|--------|--------|44444444|44444444|

|--------|--------|--------|--------|
|--------|--------|--------|--------|
|33333333|33333333|--------|--------|
|--------|--------|44444444|44444444|

Verse 2:
|--------|--------|--------|--------|
|--------|--------|--------|--------|
|6-6-6+--|6-6-6+--|--------|--------|
|--------|--------|4-4-4+--|4-4-4+--|

|--------|--------|--------|--------|
|--------|--------|--------|--------|
|6-6-6+--|6-6-6+--|--------|--------|
|--------|--------|4-4-4+--|4-4-4+--|

|--------|--------|--------|--------|
|--------|--------|--------|--------|
|3-3-3+--|--------|6-6-6+--|--------|
|--------|4-4-4+--|--------|6-6-6+--|

|--------|--------|--------|--------|
|--------|--------|--------|--------|
|3-3-3+--|--------|6-6-6+--|--------|
|--------|4-4-4+--|--------|6.------|

Chorus:
|--------|--------|--------|--------|
|--------|--------|--------|--------|
|66666666|66666666|--------|--------|
|--------|--------|44444444|44444444|

|--------|--------|--------|--------|
|--------|--------|--------|--------|
|33333333|33333333|--------|--------|
|--------|--------|44444444|44444444|

|--------|--------|--------|--------|
|--------|--------|--------|--------|
|66666666|66666666|--------|--------|
|--------|--------|44444444|44444444|

|--------|--------|--------|--------|
|--------|--------|--------|--------|
|33333333|--------|--------|--------|
|--------|66666666|44444444|44444444|

Breakdown:
|--------|--------|--------|--------|
|--------|--------|--------|--------|
|66666666|--------|--------|--------|
|--------|11111111|44444444|44444444|

|--------|--------|--------|--------|
|--------|--------|--------|--------|
|66666666|--------|--------|--------|
|--------|11111111|44444444|44444444|

|--------|--------|--------|--------|
|--------|--------|--------|--------|
|66666666|--------|--------|--------|
|--------|11111111|44444444|44444444|

|--------|--------|--------|--------|
|--------|--------|--------|--------|
|66666666|11111111|3-------|--------|
|--------|--------|--6-4+--|--------|

Chorus:
|--------|--------|--------|--------|
|--------|--------|--------|--------|
|6+------|--------|--------|--------|
|--------|--------|4+------|--------|

|--------|--------|--------|--------|
|--------|--------|--------|--------|
|3+------|--------|--------|--------|
|--------|--------|4+------|--------|

|--------|--------|--------|--------|
|--------|--------|--------|--------|
|66666666|66666666|--------|--------|
|--------|--------|44444444|44444444|

|--------|--------|--------|--------|
|--------|--------|--------|--------|
|33333333|--------|--------|--------|
|--------|66666666|44444444|44444444|

Outro:
|--------|--------|--------|--------|
|--------|--------|--------|--------|
|66666666|--------|--------|--------|
|--------|11111111|44444444|44444444|

|--------|--------|--------|--------|
|--------|--------|--------|--------|
|66666666|--------|--------|--------|
|--------|11111111|4-4-4+--|--------|


Sorry if any of it's wrong.
            
Submit corrections

comments powered by Disqus
↑ Back to top | You Me At Six Bass for Finders Keepers. Lyrics for acoustic guitar and electric guitar. Tablatures and chords are parodies/interpretations of the original songs. You may use it for private study, scholarship, research or language learning purposes only