» » »

Weezer, Beverly Hills Bass tabs (ver.3)

Artists:  A B C D E F G H I J K L M N O P Q R S T U V W X Y Z # 

Beverly Hills Bass tabs (ver.3)

Weezer Tabs
 Rating:
4/5 (4 votes)
Beverly Hills lessons Tabs too difficult? Try these video lessons and learn fast
1
                \ - slide up
x - hold string

(DRUM ROLE: CRASH)
    
G |-----------------------------------------------|
D |-----------------------------------------------|
A |-----1-1xx-----1-1xx-----1-1xx3-3xx------12----|
E |1-1xx-----1-1xx-----1-1xx----------------------|

    
 "Where I come from isn't all that great..."
G |------------------------------------------------|
D |------------------------------------------------|
A |-----1-1xx-----1-1xx-----1-1xx3-3xx------12-----|
E |1-1xx-----1-1xx-----1-1xx-----------------------|

G |-----------------------------------------------|
D |-----------------------------------------------|
A |-----1-1xx-----1-1xx-----1-1xx3-3xx------12----|
E |1-1xx-----1-1xx-----1-1xx----------------------|

     
 "Beverly Hills..."
G |-----------------------------------------------|
D |-----------------------------------------------|
A |-----1-1xx3-3xx1-1xx-----1-1xx3-3xx------12----|
E |1-1xx----------------1-1xx---------------------|

G |-----------------------------------------------|
D |-----------------------------------------------|
A |-----1-1xx3-3xx1-1xx-----1-1xx3-3xx------12----|
E |1-1xx----------------1-1xx---------------------|

     
 "Look at all those movie stars..."
G |-----------------------------------------------|
D |-----------------------------------------------|
A |-----1-1xx-----1-1xx-----1-1xx3-3xx------12----|
E |1-1xx-----1-1xx-----1-1xx----------------------|

G |-----------------------------------------------|
D |-----------------------------------------------|
A |-----1-1xx-----1-1xx-----1-1xx3-3xx------12----|
E |1-1xx-----1-1xx-----1-1xx----------------------|

    
 "Beverly Hills..."
G |-----------------------------------------------|
D |-----------------------------------------------|
A |-----1-1xx3-3xx1-1xx-----1-1xx3-3xx------12----|
E |1-1xx----------------1-1xx---------------------|

G |-----------------------------------------------|
D |-----------------------------------------------|
A |-----1-1xx3-3xx1-1xx-----1-1xx3-3xx------12----|
E |1-1xx----------------1-1xx---------------------|

   
G |-----------------------------------------------|
D |-----------------------------------------------|
A |-----1-1xx3-3xx1-1xx-----1-1xx3-3xx------12----|
E |1-1xx----------------1-1xx---------------------|

G |-----------------------------------------------|
D |-----------------------------------------------|
A |-----1-1xx3-3xx1-1xx-----1-1xx3-3xx------12----|
E |1-1xx----------------1-1xx---------------------|

   
         STOP (Guitar and vocals)
----------------------------------|

   
 "No I don't..."
G |-----------------------------------------------|
D |-----------------------------------------------|
A |-----1-1xx-----1-1xx-----1-1xx3-3xx------12----|
E |1-1xx-----1-1xx-----1-1xx----------------------|

   
 "Beverly Hills..."
G |-----------------------------------------------|
D |-----------------------------------------------|
A |-----1-1xx3-3xx1-1xx-----1-1xx3-3xx------12----|
E |1-1xx----------------1-1xx---------------------|

G |-----------------------------------------------|
D |-----------------------------------------------|
A |-----1-1xx3-3xx1-1xx-----1-1xx3-3xx------12----|
E |1-1xx----------------1-1xx---------------------|

G |-----------------------------------------------|
D |-----------------------------------------------|
A |-----1-1xx3-3xx1-1xx-----1-1xx3-3xx------12----|
E |1-1xx----------------1-1xx---------------------|

G |----------------------------------------------------|
D |----------------------------------------------------|
A |-----1-1xx3-3xx1-1xx-----1-1xx3-3xx-----------------|
E |1-1xx----------------1-1xx------------1-1--1-1------|


Thanks for learning!
            
Submit corrections

comments powered by Disqus
↑ Back to top | Weezer Bass for Beverly Hills. Lyrics for acoustic guitar and electric guitar. 1 Tablatures and chords are parodies/interpretations of the original songs. You may use it for private study, scholarship, research or language learning purposes only