» » »

Weezer, Island In The Sun Tabs (ver.1)

Artists:  A B C D E F G H I J K L M N O P Q R S T U V W X Y Z # 

Island In The Sun Tabs (ver.1)

Weezer Tabs
 Rating:
4/5 (4 votes)
Island In The Sun lessons Tabs too difficult? Try these video lessons and learn fast
1
                PROPS GO TO: jbrix419

PROPS GO TO: Coco Dave (and jbrix419 for one change)

-Intro-

-----3-3----5-5-----2-2----3-3-----
-----5-5----5-5-----3-3----3-3-----
-----4-4----5-5-----2-2----4-4-----
-----------------------------------
-----------------------------------
-----------------------------------

-1st riff-

-----------------------------------------
---8---8---8---8---7---7---8----8--------
-9---9---9---9---7---7---7---7-----------
-----------------------------------------
-----------------------------------------
-----------------------------------------

-chorus-

-----------------------------------
-----------------------------------
----7---------7---------5----------
----7----5----7----5----5----7-----
----5----5----5----5----3----7-----
---------3---------3---------5-----

-Solo-

------------------------------------------------
------------------------------------------------
----0--9--7--5--4--5--4-------------------------
-------------------------0--9--7--5--4--5--5---- <---The change was made here (The zero 
------------------------------------------------     should be placed on this line.)
------------------------------------------------
            
Submit corrections

comments powered by Disqus
↑ Back to top | Weezer Tabs for Island In The Sun. Lyrics for acoustic guitar and electric guitar. 1 Tablatures and chords are parodies/interpretations of the original songs. You may use it for private study, scholarship, research or language learning purposes only