» » »

Weezer, Beverly Hills Tabs (ver.2)

Artists:  A B C D E F G H I J K L M N O P Q R S T U V W X Y Z # 

Beverly Hills Tabs (ver.2)

Weezer Tabs
 Rating:
3.4/5 (10 votes)
Beverly Hills lessons Tabs too difficult? Try these video lessons and learn fast
                ----------------------------------------------------------------------------
                             Beverly Hills - Weezer
----------------------------------------------------------------------------

Tuning: Standard

                     1st Solo
e|--------------------------4^---------------------------------------------|
B|--6-4---------------6-4------6---6-4-------------------------------------|
G|------5-3-3h5p3---------5------------5-3-3h5p3-----3-x-3-x---------------|
D|----------------6------------------------------6-----------6^------------|
A|-------------------------------------------------------------------------|
E|-------------------------------------------------------------------------|



                       2nd Solo
e|--13--13----11------11------11--11--11----11-----------------------------|
B|----------13--13--13--13--13--13--13--13----13-13-11^-11--11-------------|
G|--------------------------------------------------------13--13-13^-10----|
D|-------------------------------------------------------------------------|
A|-------------------------------------------------------------------------|
E|-------------------------------------------------------------------------|

e|--13^----11--------------------------------------------------------------|
B|-------13--13-11-11--11--11^-11------------------11---------11-11--11----|
G|-------------------13--13------13-10--13^-10---13--13--10-13-----13--13--|
D|------------------------------------13-----------------------------------|
A|-------------------------------------------------------------------------|
E|-------------------------------------------------------------------------|

e|-------------------------------------------------------------------------|
B|-------------------------------------------------------------------------|
G|--10--13^-10-----10-10---10-13-13----------------------------------------|
D|----13---------13--------------------------------------------------------|
A|-------------------------------------------------------------------------|
E|-------------------------------------------------------------------------|
            
Submit corrections

comments powered by Disqus
↑ Back to top | Weezer Tabs for Beverly Hills. Lyrics for acoustic guitar and electric guitar. Tablatures and chords are parodies/interpretations of the original songs. You may use it for private study, scholarship, research or language learning purposes only