» » »

Beverly Hills Bass tabs (ver.2)

Artists:  A B C D E F G H I J K L M N O P Q R S T U V W X Y Z # 

Beverly Hills Bass tabs (ver.2)

Weezer
Rating:
5/5 (20 votes)

Hard to play? Try these video lessons and learn fast.
                
k Weezer kicks ass

intro:

G|--------------------------------------------------------------------------|
D|--------------------------------------------------------------------------|
A|------1-1---------1-1---------1-1---3-3-----------------------------------|
E|1-1---------1-1---------1-1-----------------------------------------------|

verse 2x:

G|--------------------------------------------------------------------------|
D|--------------------------------------------------------------------------|
A|------1-1---------1-1---------1-1---3-3-----------------------------------|
E|1-1---------1-1---------1-1-----------------------------------------------|


chorus:

G|--------------------------------------------------------------------------|
D|--------------------------------------------------------------------------|
A|------1-1---------1-1---------1-1---3-3-----------------------------------|
E|1-1---------1-1---------1-1-----------------------------------------------|

G|--------------------------------------------------------------------------|
D|--------------------------------------------------------------------------|
A|------1-1---------1-1---------1-1-----------------------------------------|
E|1-1---------1-1---------1-1-----------------------------------------------|

G|--------------------------------------------------------------------------|
D|--------------------------------------------------------------------------|
A|------1-1---------1-1---------1-1---3-3-----------------------------------|
E|1-1---------1-1---------1-1-----------------------------------------------|

G|--------------------------------------------------------------------------|
D|--------------------------------------------------------------------------|
A|------1-1---------1-1---------1-1-----------------------------------------|
E|1-1---------1-1---------1-1-----------------------------------------------|
            
Hard to play? Try these video lessons and learn fast. | Correct




comments powered by Disqus
↑ Back to top | Tablatures and chords are parodies/interpretations of the original songs. You may use it for private study, scholarship, research or language learning purposes only