» » »

Weezer, Hash Pipe Tabs (ver.1)

Artists:  A B C D E F G H I J K L M N O P Q R S T U V W X Y Z # 

Hash Pipe Tabs (ver.1)

Weezer Tabs
 Rating:
4/5 (4 votes)
Hash Pipe lessons Tabs too difficult? Try these video lessons and learn fast
                PROPS GO TO: B.Chamberlain

This song is pretty awesome and original. I tabbed
this right from memory, and I'm pretty sure it is right.
Enjoy!

Tuning:Standard(eBGDAE)

Intro:

The bass slide comes first, then...

e|---------------------------------|
B|---------------------------------|
G|-----------------------------6---|
D|-0-0-4-5-0-0-4-5-0-0-4-5-0-0-6-0-| PLAY 2 TIMES
A|-0-0-2-3-0-0-2-3-0-0-2-3-0-0-4-0-|
E|---------------------------------|

Chorus:

e|----------------------------------------------------|
B|----------------------------------------------------|
G|-7--7-7-7--7-9--9-9-10--11--------------------------|
D|-7--7-7-7--7-9--9-9-10--11--0-0-4-5-0-0-4-5-0-0-4-5-|
A|-5--5-5-5--5-7--7-7-8---9---0-0-2-3-0-0-2-3-0-0-2-3-|
E|-5--5-5-5--5-7--7-7-8---9---------------------------|

Other Chorus:

e|-------------------------------------------------------------------|
B|-------------------------------------------------------------------|
G|-7--7-7-7--7-7--7-7-5--5-5-5--5-5-5-5-----5--5-5-5--5-7--7-7-------|
D|-7--7-7-7--7-7--7-7-5--5-5-5--5-5-5-5-0-0-5--5-5-5--5-7--7-7-10-11-|
A|-5--5-5-5--5-5--5-5-3--3-3-3--3-3-3-3-0-0-3--3-3-3--3-5--5-5-10-11-|
E|-5--5-5-5--5-5--5-5-3--3-3-3--3-3-3-3------------------------8--9--|

Solo:

e|10-10-10-10-8-8-8-8-6-6-6-6-4-4-4-------------------------------
B|----------------------------------------------------------------
G|----------------------------------14-14-14-14-14-12-12-12-12-12-
D|----------------------------------------------------------------
A|----------------------------------------------------------------
E|----------------------------------------------------------------

e|---------------7-7-7-7-6-6-6-6-4-4-4-4-3-3-3------------------------
B|-6-6-6-6-4-4-4------------------------------------------------------
G|------------------------------------------------------------8-8-8-8-
D|---------------------------------------------14-14-14-14-14---------
A|--------------------------------------------------------------------
E|--------------------------------------------------------------------

e|---------------|
B|---------2-1-0-|
G|-7-7-7-7-------|
D|---------------| END OF SOLO
A|---------------|
E|---------------|
            
Submit corrections

comments powered by Disqus
↑ Back to top | Weezer Tabs for Hash Pipe. Lyrics for acoustic guitar and electric guitar. Tablatures and chords are parodies/interpretations of the original songs. You may use it for private study, scholarship, research or language learning purposes only