» » »

Weezer, Beverly Hills Tabs (ver.3)

Artists:  A B C D E F G H I J K L M N O P Q R S T U V W X Y Z # 

Beverly Hills Tabs (ver.3)

Weezer Tabs
Rating:
1.3/5 (101 vote)
Beverly Hills lessons Tabs too difficult? Try these video lessons and learn fast
                Weezer - Beverly Hills

Really don't like the song that much.  I'm more of an old school Weezer fan, but hey,
saw this in Guitar World and no other tabs were even close, so here's to all the Weezer
fans who can get into their new stuff!!  Enjoy!!

GUITAR 3 IS OPTIONAL, BUT IS INCLUDED IN THE RECORDED VERSION!!

.  = Palm Mute
FB = full bend
HB = half bend
QB = quarter bend

Guitar 1 - Rivers Cuomo
Guitar 2 - Brian Bell
Guitar 3 - Unknown

Tuning - 1/2 step down  EbAbDbGbBbEb

INTRO
Guitar 1 - Some Dist.
                         v--1 1/4 gradual bend on the "5"
eb|--------------------------------------------|
Bb|----------------------2---------------------|
Gb|----------------------5---------------------|
Db|44-44-44-44-44-44-66------------------------|
Ab|44-22-44-22-44-22-44------------------------|
Eb|22-22-22-22-22-22-44------------------------|
   .. .. .. .. .. .. ..

Guitar 2 - Some Dist.
                         v -- 1/2 gradual bend on the "12"
eb|----------------------9---------------------|
Bb|----------------------12--------------------|
Gb|--------------------------------------------|
Db|44-44-44-44-44-44-66------------------------|
Ab|44-22-44-22-44-22-44------------------------|
Eb|22-22-22-22-22-22-44------------------------|
   .. .. .. .. .. .. ..

VERSE       PLAY VERSE 4 TIMES!!!!!!!!!!!!!
Guitar 1 - Some Dist.
                         v--1 1/4 gradual bend on the "5"
eb|--------------------------------------------|
Bb|----------------------2---------------------|
Gb|----------------------5---------------------|
Db|44-44-44-44-44-44-66------------------------|
Ab|44-22-44-22-44-22-44------------------------|
Eb|22-22-22-22-22-22-44------------------------|
   .. .. .. .. .. .. ..

Guitar 2 - Some Dist.
                         v--1/2 gradual bend on the "12"
eb|----------------------9---------------------|
Bb|----------------------12--------------------|
Gb|--------------------------------------------|
Db|44-44-44-44-44-44-66------------------------|
Ab|44-22-44-22-44-22-44------------------------|
Eb|22-22-22-22-22-22-44------------------------|
   .. .. .. .. .. .. ..

CHORUS
Guitar 1 - Dist.          v--1 1/4 grad. bend on the "5"
eb|-------------------------------------|
Bb|-----------------------2-------------|
Gb|---44-66-44-----44-66--5-------------|
Db|44-44-66-44--44-44-66----------------|
Ab|44-22-44-22--44-22-44----------------|
Eb|22-22-44-22--22-22-44----------------|

Guitar 2 - Dist.          v-- 1/2 grad. bend on the "12"
eb|-----------------------9-------------|
Bb|-----------------------12------------|
Gb|---44-66-44-----44-66----------------|
Db|44-44-66-44--44-44-66----------------|
Ab|44-22-44-22--44-22-44----------------|
Eb|22-22-44-22--22-22-44----------------|

VERSE
CHORUS

1st SOLO
Guitar 1 - Dist. with Talk-Box Effect            1/2 grad bend on "12"--v
eb|---------------------------5b(5.25)----------------------------------9--|
Bb|-7-5----------------7--5-----------7~--7-5---------------------------12-|
Gb|-----6--4-4-5-4-2~-------6-----------------6-4--4-5-4-2~--4-x-4-x-2~----|
Db|------------------------------------------------------------------------|
Ab|------------------------------------------------------------------------|
Eb|------------------------------------------------------------------------|

Guitar 2 - Dist.
eb|------------------------------------------------------------------------|
Bb|------------------------------------------------------------------------|
Gb|--------44-----------------44-----------------44---------66-------------|
Db|44------44--------44-------44-----44----------44---------66----------3--|
Ab|44------22--------44-------22-----44----------22---------44----------3--|
Eb|22------22--------22-------22-----22----------22---------44----------1--|

Guitar 3                                  1 1/4 grad bend on the "5" -- v
eb|------------------------------------------------------------------------|
Bb|---------------------------------------------------------------------2--|
Gb|---------------------------------------------------------------------5--|
Db|------------------------------------------------------------------------|
Ab|------------------------------------------------------------------------|
Eb|------------------------------------------------------------------------|

BRIDGE
Guitar 1 - dist.
eb|------------------|
Bb|------------------|
Gb|------------------|
Db|4-----------------|
Ab|4-----------------|
Eb|2-----------------|

Guitar 2 - Clean tone
eb|-------------------------------|-------------------|
Bb|--------------4----------------|-----4-------------|
Gb|-----3-------------------------|-------------4-----|
Db|------------4---4--(repeat 2X)-|---4---4---4-------|
Ab|---4---4--2--------------------|-3-------2---------|
Eb|-2-----------------------------|-------------------|

VERSE riff once
CHORUS    2X

2nd SOLO - Part 1 - Dist. w Talk Box
Guitar 1
    FB   FB            FB       FB       FB         FB     FB     FB(16only) 
eb|------------------------------------------------------------------------|
Bb|-17---17(17)~-14-17----14-17----14-17---17-14-17---14-17---14--17-------|
Gb|--------------------16-------16-------16---------16-----16-----16-16p14-|
Db|------------------------------------------------------------------------|
Ab|------------------------------------------------------------------------|
Eb|------------------------------------------------------------------------|

Solo Cont. - Part 2 FB                                  HB
eb|-------------------------------------------------------------------------|
Bb|--------------17--17-(17)p14-14-17-14------------------------------------|
Gb|--14---14~----------------------------17-16-14-16p14-16(16)p14-16p14-----|
Db|16--16-----16--------------------------------------------------------16--|
Ab|-------------------------------------------------------------------------|
Eb|-------------------------------------------------------------------------|

                     (solo continued further down)

Guitar 2 - Dist.      
Play this over the 1st 2 solo parts, just listen to get the exact placement!
eb|------------------------------------------------------------------------|
Bb|------------------------------------------------------------------------|
Gb|--------44-----------------44-----------------44---------66-------------|
Db|44------44--------44-------44-----44----------44---------66----------3--|
Ab|44------22--------44-------22-----44----------22---------44----------3--|
Eb|22------22--------22-------22-----22----------22---------44----------1--|

Guitar 3 - Dist.                                 1/2 bend on "12" only--v
eb|---------------------------------------------------------------------9--|
Bb|---------------------------------------------------------------------12-|
Gb|------------------------------------------------------------------------|
Db|------------------------------------------------------------------------|
Ab|------------------------------------------------------------------------|
Eb|------------------------------------------------------------------------|

Solo Cont. - Guitars still tuned 1/2 step down, couldnt fit the "b's"
   HB         QB            HB                 QB
e|--------------------------------------------------------------------------|
B|-14------14-16-14--14--16-16-16-14-16-14-----14----------------------14-14~
G|---16~-16---------16--------------------16-14--16~-14-16-16-16~-14-16-----|
D|--------------------------------------------------------------------------|
A|--------------------------------------------------------------------------|
E|--------------------------------------------------------------------------|

Guitar 2 - Dist.
e|--------------------------------------------------------------------------|
B|--------------------------------------------------------------------------|
G|---------44--------------66------------------44----------------------44---|
D|-44------44--------------66------------------44-------44-------------44---|
A|-44------22--------------44------------------22-------44-------------22---|
E|-22------22--------------44------------------22-------22-------------22---|

Last Part
Guitar 1  v--grad bend one full step - "9" only
eb|-------9------|
Bb|-------12-----|
Gb|--------------|
Db|--------------|
Ab|--------------|
Eb|--------------|

Guitar 2
eb|--------------|
Bb|--------------|
Gb|-66-44--------|
Db|-66-44-----4--|
Ab|-44-22--3--4--|
Eb|-44-22--1--2--|

Guitar 3   v--grad. bend up 1/2 step
eb|----------|
Bb|----------|
Gb|--------5-|
Db|----------|
Ab|----------|
Eb|----------|

That's it!!!!!!!!  Please rate!!!
            

comments powered by Disqus
↑ Back to top | Weezer Tabs for Beverly Hills. Lyrics for acoustic guitar and electric guitar. Tablatures and chords are parodies/interpretations of the original songs. You may use it for private study, scholarship, research or language learning purposes only