» » »

Weezer, Beverly Hills Bass tabs (ver.1)

Artists:  A B C D E F G H I J K L M N O P Q R S T U V W X Y Z # 

Beverly Hills Bass tabs (ver.1)

Weezer Tabs
Rating:
4/5 (11 votes)
Beverly Hills lessons Tabs too difficult? Try these video lessons and learn fast
                tuning E A D G 



G<------------------------------0->
D<------------------------------0->
A<-----1-1-----1-1-----1-1--3-3-0->
E<-1-1-----1-1-----1-1----------0-> x3

G<-------------------------------0->
D<-------------------------------0->
A<-----1-1-3-3-1-1------1-1--3-3-0->
E<-1-1--------------1-1----------0-> x2

G<------------------------------0->
D<------------------------------0->
A<-----1-1-----1-1-----1-1--3-3-0->
E<-1-1-----1-1-----1-1----------0-> x2

G<-------------------------------0->
D<-------------------------------0->
A<-----1-1-3-3-1-1------1-1--3-3-0->
E<-1-1--------------1-1----------0-> x2

G<------------------------------0->
D<------------------------------0->
A<-----1-1-----1-1-----1-1--3-3-0->
E<-1-1-----1-1-----1-1----------0-> x2 (then rest for lyrics.then play-

G<------------------------------0->
D<------------------------------0->
A<-----1-1-----1-1-----1-1--3-3-0->
E<-1-1-----1-1-----1-1----------0-> 

G<-------------------------------0->
D<-------------------------------0->
A<-----1-1-3-3-1-1------1-1--3-3-0->
E<-1-1--------------1-1----------0->

G<--------------------------------------------------0->
D<--------------------------------------------------0->
A<-----1-1-3-3-1-1------1-1--3-3-1234568987654321---0-> 
E<-1-1--------------1-1-----------------------------0->
^^^^^^^^^^^^^^^^^^^^^^^^^^^^^^^^^^^^^^^^^^^^^^^^^^^^^^
the 1234568987654321 is a slide mini solo.

G<-------------------------------0->
D<-------------------------------0->
A<-----1-1-3-3-1-1------1-1--3-3-0->
E<-1-1--------------1-1----------0->

G<-------------------------------------->
D<-------------------------------------->
A<-----1-1-3-3-1-1------1-1--3-3-1-1--1->
E<-1-1--------------1-1----------------->

thats my weezer tab. its very close of being right becaause i went to there concert and
i tried to see what he was playing but he kept moving so couldnt see him that much. if i
            
Submit corrections

comments powered by Disqus
↑ Back to top | Weezer Bass for Beverly Hills. Lyrics for acoustic guitar and electric guitar. Tablatures and chords are parodies/interpretations of the original songs. You may use it for private study, scholarship, research or language learning purposes only