>
 >
Warpaint 1

Warpaint 1 Bass Tabs

Warpaint - Warpaint 1 chords, tabs, tablatures, lyrics

Guitar lessons | Add/correct | Request | Top 50 tabs Artists:  A B C D E F G H I J K L M N O P Q R S T U V W X Y Z 0-9

Warpaint 1 Bass Tabs – Warpaint

CD, Sheet music, Poster

Do you like Warpaint 1? Share with your friends now
Bass TabsBass Tabs v2TabsTabs v2





Intro

G||--------------------|--------------------||
D||--------------------|--------------------|| (fade in and fade out)
A||------5h7-------5h7-|------5h7-------5h7-||
E||-0---------0--------|-0---------0--------||

---

G||---7--9----7-9----7-|-9----7-9--10-9--7-9-||
D||--------------------|---------------------||  x4
A||-7------7-------7---|---7-----------------||
E||--------------------|---------------------||


Verse

G||---7--9----7-9----7-|-9----7-9--10-9--7-9-||
D||--------------------|---------------------||  x4
A||-7------7-------7---|---7-----------------||
E||--------------------|---------------------||


G||------------------------|-------------------------||
D||------------------------|-------------------------||  x4
A||------------------------|---------------10--10-10-||
E||-0-0--12\----0-0--12\---|-0-0--12\----0-----------||

G||------------------------|------------------------||
D||------------------------|------------------------||  x3
A||------10-9--------10-9--|------10-9----10--10-10-||
E||-0-0---------0-0--------|-0-0--------0-----------||

G||------------------------|---99-99-99-9--------||
D||------------------------|---------------------||
A||------10-9--------10-9--|---------------------||
E||-0-0---------0-0--------|-0------------8--8-8-||


Pre-Chorus

G||-----x9---9---99------|------9---7----5----5-||
D||----------------------|------------------5---||  x4
A||------------------7-7-|----7-----------------||
E||-0--------------------|-0-0------------------||

G||-----x9---9---99------|------9---7----5------||
D||----------------------|----------------------||  x4
A||------------------7-7-|----7-------------5-5-||
E||-0--------------------|-0-0------------------||


G||-----------------|------------------|------------------|-----------------|
D||-----------------|------------------|------------------|-----------------|
A||-----------------|------------------|------------------|-----------------|
E||-0-------------3-|----------------3-|-0--------------0-|-3---------------|

---

G||--------------------|--------------------|
D||--------------------|--------------------|
A||--------------------|--------------------|
E||-7-7--7-7--7-7--7-7-|-3-3--3-3--3-3--3-3-|

G||--------------------|--------------------|
D||--------------------|--------------------|
A||--------------------|--------------------|
E||-7-7--7-7--5-7--7-7-|-3-3--3-3--3-3--3-3-|

G||--------------------|--------------------||
D||--------------------|--------------------||
A||--------------------|--------------------||
E||-7-7--7-7--5-7--7-7-|-3-3--3-3--3-3--3-3-||

G||--------------------|--------------------||
D||--------------------|--------------------||  x5
A||--------------------|--------------------||
E||-7-7--7-7--7-7--7-7-|-3-3--3-3--3-3--3-3-||


Chorus

G||--------------------|--------------------||
D||---------5----------|---------5----------||
A||-----x7-7-----------|------7-7---------5-||
E||-0----------x8--8-7-|----0-------x8--8---||

G||--------------------|--------------------||
D||---------5----------|---------5----------|| x3
A||-----x7-7-----------|------7-7---------5-||
E||---0--------x8--8-7-|----0-------x8--8---||


Interlude

G||--------------------|--------------------||
D||--------------------|--------------------||  x4
A||------7---------7---|------7------7------||
E||-0---------0--------|-0---------0----8-7-||

---

G||--------------------|--------------------||
D||--------------------|--------------------||
A||--------------------|--------------------||
E||-0----0-3---------3-|0----0-3----------3-||

---

G||--------------------|--------------------||
D||--------------------|--------------------||  x2
A||--------------------|--------------------||
E||-7-7--7-7--7-7--7-7-|-3-3--3-3--3-3--3-3-||

G||--------------------|--------------------||
D||--------------------|--------------------||
A||--------------------|--------------------||
E||-7-7--7-7--5-7--7-7-|-3-3--3-3--3-3--3-3-||

G||--------------------|--------------------||
D||--------------------|--------------------||  x4
A||--------------------|--------------------||
E||-7-7--7-7--7-7--7-7-|-3-3--3-3--3-3--3-3-||

G||--------------------|------------------------||
D||--------------------|------------------------||
A||--------------------|-----------10-10--10-10-||
E||-7-7--7-7--7-7--7-7-|-3-3--3-3---------------||

---

G||------------------------|----------------------------|
D||------------------------|---------------17--17-17p16-|
A||-14----14---------------|----------------------------|
E||----------14---------14-|-15------15-----------------|

G||------------------------|----------------------------||
D||------------------------|----------------------------||  x2
A||-14----14---------------|----------------------------||
E||----------14---------14-|-15------15--------------15-||


Chorus 2

G||--------------------|--------------------||
D||---------5----------|---------5----------||
A||-----x7-7-----------|------7-7---------5-||
E||-0----------x8--8-7-|----0-------x8--8---||

G||--------------------|--------------------||
D||---------5----------|---------5----------|| x7
A||-----x7-7-----------|------7-7---------5-||
E||---0--------x8--8-7-|----0-------x8--8---||

G||--------------------||
D||--------------------||
A||--------------------||
E||-0------------------||





Comments


Popular Warpaint tabs & chords
Bees Bass Tabs
Beetles Bass Tabs
Elephants 2 Bass Tabs
Stars Bass Tabs
Shadow Chords
Keep It Healthy Intro Tabs
Set Your Arms Down Tabs
Set Your Arms Down 3 Tabs
Undertow Tabs
Shadow Ukulele


Song lyrics



↑ Back to top | Tablatures and chords are parodies/interpretations of the original songs. You may use it for private study, scholarship, research or language learning purposes only
© 2014 AZChords.com Contact us | Privacy policy | DMCA | Add/correct tabs | Request tabs | Top 50 tabs