» » »

Warpaint, Warpaint Tabs (ver.2)

Artists:  A B C D E F G H I J K L M N O P Q R S T U V W X Y Z # 

Warpaint Tabs (ver.2)

Warpaint Tabs
 Rating:
3.7/5 (6 votes)
Warpaint lessons Tabs too difficult? Try these video lessons and learn fast
1
                


Intro/Verse:

E---------------------------------------------------|
B---------------------------------------------------|
G---------------------------------------------------|
D---------------------------------------------------|
A---5-7--5-7--5-7--5-7-7/8/7-5-7--------------------|
E--0----0----0----0---------------------------------|


E--------------------------------------------------|
B--------------------------------------------------|
G--------------------------------------------------|
D------------------------7-------------------------|
A--5-7---5-7---5-7---5-7---7-5-7-------------------|
E-0----0-----0-----0-------------------------------|

(Guitar 2 plucks these notes)

E--------------------------------|
B--------------------------------|
G--------------------------------|
D--------------------------------|
A--19--17------------------------|
E--------------------------------|



"In like a dull knife..."

(Sometimes she picks the notes seperatley)

E-------------------------------------------------------------|
B-------------------------------------------------------------|
G---------------------------------------------16-16-----------|
D-17-17-17-17-17-17-17-17---16-16-16-16-16-16-16-16-----------|
A-19-19-19-19-19-19-19-19---17-17-17-17-17-17-17-17-----------|
E-------------------------------------------------------------|

Emily (x2):

E------------------------------------------------------------|
B------------------------------------------------------------|
G--------------------------------------7---------------------|
D----------4-5-7-5-------------4-5-7-5---5-4-----------------|
A--7-7-9-7---------5-7-7-7-9-7-------------------------------|
E-0----------------------------------------------------------|


Theresa:

E-7---7---------|
B-8---7---------|
G-9---7---------|
D-9---9---------|
A---------------|
E---------------|


Chorus:


E-----------------------------------------------------------|
B-----------------------------------------------------------|
G-----4-----4--------------7------5-------------------------|
D---5-----5----5----5----7---7--7---7-----------------------|
A-7-----7--------7-----5------5-------5---------------------|
E-----------------------------------------------------------|

repeat, and end on:


E----------------------------|
B----------------------------|
G-----4----------------------|
D---4---4/---2---------------|
A-5--------2-----------------|
E----------------------------|


"(I) don't know..."

Theresa:

E-------9-------9----9----10----10---10------9------9---9---------|
B-12-12---12-12---12---8-8---8-8---8----10-10--10-10--10----------|
G-----------------------------------------------------------------|
D-----------------------------------------------------------------|
A-----------------------------------------------------------------|
E-----------------------------------------------------------------|

E-----9---10-9-7-9--------------|
B-7-7---7-----------------------|
G-------------------------------|
D-------------------------------|
A-------------------------------|
E-------------------------------|

Emily:

E--------------------------------|
B--------------------------------|
G--------------------------------|
D-------------------7----9-------|
A-----9---7/--2/5-5--5/7---7/----|
E-5/7---5------------------------|


E-------------------------------------------------------------|
B--------7-----8-----7--------------7----------8-----7--------|
G-----7---7------7-9------------7-----7-9-11-----7-9----------|
D-9-9--9---9-7---------9-7--9-9---9----------9---------9-7----|
A-------------------------------------------------------------|
E-------------------------------------------------------------|

Then Theresa plays these chords:


E-10-15-10-5----------------------------|
B-7--12-7--5----------------------------|
G-7--12-7--6----------------------------|
D-9--12-9--7----------------------------|
A----------7----------------------------|
E---------------------------------------|

This plays before "I'm over here by your way":

E---------------------------------|
B---------------------------------|
G---------------------------------|
D---------------------------------|
A-7/19--19-19-17-------19-17------|
E----------------19-17------------|


Outro:


E-12-12-12-12-12--12-12-12--15-12-15---------|
B-14-14-14-14-14--12-12-12--12-12-12---------|
G-12-12-12-12-12--12-12-12--12-12-12---------|
D-12-12-12-12-12--12-12-12--12-12-12---------|
A--------------------------------------------|
E--------------------------------------------|

Fedback & Comments welcome :)
            
Submit corrections

comments powered by Disqus
↑ Back to top | Warpaint Tabs for Warpaint. Lyrics for acoustic guitar and electric guitar. 1 Tablatures and chords are parodies/interpretations of the original songs. You may use it for private study, scholarship, research or language learning purposes only