» » »

Majesty Tabs (ver.2)

Artists:  A B C D E F G H I J K L M N O P Q R S T U V W X Y Z # 

Majesty Tabs (ver.2)

Warpaint
Rating:
5/5 (1 vote)

Hard to play? Try these video lessons and learn fast.
                (Intro)
-------------------------------------------------------------------------------
                            Majesty - Warpaint
-------------------------------------------------------------------------------

This is just the intro for the live/acoustic version, if anyone figures out the rest 
feel free to post a comment and I'll add it in.

Tuning: standard

Theresa:
e|-----------------------------------------------------------------------------|
B|--------12------12---12--------12------12----12------------------------------|
G|-----------------------------------------------------------------------------|
D|--14-14---14-14---14----14-14---14-14----14----------------------------------|
A|--15-15---15-15---15----14-14---14-14----14----------------------------------|
E|-----------------------------------------------------------------------------|

Emily:
e|-----------------------------------------------------------------------------|
B|-----------------------------------------------------------------------------|
G|-----------------------------------------------------------------------------|
D|-----------------------------------------------------------------------------|
A|------------2----2-------------2-----2------------2----2---0-2-3-2---0-------|
E|-33333/5-0---0-0----33333/5-0---0-0----33333/5-0--0-0---3---------3----------|



************************************

| /   slide up
| \   slide down
| h   hammer-on
| p   pull-off
| ~   vibrato
| +   harmonic
| x   Mute note
| b   Bend
| pb  Pre-bend
| br  Bend release
| pbr Pre-bend release
| brb Bend release bend

************************************
            
Hard to play? Try these video lessons and learn fast. | Correct




comments powered by Disqus
↑ Back to top | Tablatures and chords are parodies/interpretations of the original songs. You may use it for private study, scholarship, research or language learning purposes only