>
 >
Majesty

Majesty Guitar Tabs

Warpaint - Majesty chords, tabs, tablatures, lyrics

Guitar lessons | Add/correct | Request | Top 50 tabs Artists:  A B C D E F G H I J K L M N O P Q R S T U V W X Y Z 0-9

Majesty Guitar Tabs – Warpaint

CD, Sheet music, Poster

Do you like Majesty? Share with your friends now
Tabs
Band: Warpaint



Intro: A combination of these notes:

E---------------------------------------|
B---------------------------------------|
G---------------------------------------|
D---------------------------------------|
A--------------------2-3-2---0----------|
E--3/-5-0-3-3/5-0--3-------3------------|

Verse:

The first two chords here are played until "You still went the other way"
and are played again at "I couldn't stand outside"

E--------------------------------------|
B--------------------------------------|
G----------2---------------------------|
D-7--2----2--2---2---------------------|
A-3--2---3----3--2---------------------|
E-5--0--5--------0---------------------|


Theresa enters with these notes in the verse and intro sometimes:

E-------------------------------------|
B----12-------12----12------12--------|
G-------------------------------------|
D-14----14-14----14-----14------------|
A-15----15-15----15-----14------------|
E-------------------------------------|


Chorus:

E--------------------------------------|
B--------------------------------------|
G---------9-------------7-9------------|
D-----9-----7-9-----9-------7-9--------|
A-7-7---7-------7-7---7----------------|
E--------------------------------------|

E--------------------------------------|
B--------------------------------------|
G---------5-------------7--------------|
D-----5-------5-----7-------7----------|
A-3-3---3---3---5-5---5---5------------|
E--------------------------------------|

Break after 2nd verse:

Guitar 1:

E--0--5--4--3--------------------------|
B--0--7--5--5--------------------------|
G--0--7--6--5--------------------------|
D--2--7--6--5--------------------------|
A--2--5--4--3--------------------------|
E--0-----------------------------------|

Guitar 2:

E-12--10-0--8--0-----------------------|
B-13--7--7--7--5-----------------------|
G-12--7--6--5--4-----------------------|
D-14--9--7--7--5-----------------------|
A--------------------------------------|
E--------------------------------------|


E---------------------------------------|
B--------------5------------------------|
G----4---4-4----------------------------|
D---------------------------------------|
A--7---7-----7--------------------------|
E-0-------------------------------------|

"You could have been mine..."

Outro:

Guitar 1 (played live):


E----------------------------------|
B----------------------------------|
G-----------9-9-7-----5---5-4------|
D---------5---------5--------------|
A---2-5-7---------7-----7----------|
E-5--------------------------------|


Guitar 2:

E-15-15-15--15-15-15-15-15---15-15-15-------|
B-12-12-12--12-12-12-12-12---12-12-12-------|
G-------------------------------------------|
D-------------------------------------------|
A-------------------------------------------|
E-------------------------------------------|


E------------------------------------------|
B-15-17-15-17-15---------------------------|
G----------------16------------------------|
D------------------------------------------|
A------------------------------------------|
E------------------------------------------|

E-15-15-15--15-15-15-15-15---15-15-15-------|
B-12-12-12--12-12-12-12-12---12-12-12-------|
G-------------------------------------------|
D-------------------------------------------|
A-------------------------------------------|
E-------------------------------------------|


E------------------------------------------|
B-15b-15-15-15-15-14-12--------------------|
G------------------------------------------|
D------------------------------------------|
A------------------------------------------|
E------------------------------------------|


E-9-9-9--9-9-9-9-9--(10)---------------------------------|
B-7-7-7--7-7-7-7-7--(7-)--9--9--9---9--9--9--9--9-(10)---|
G-------------------------7--7--7---7--7--7--7--7-(7-)---|
D--------------------------------------------------------|
A--------------------------------------------------------|
E--------------------------------------------------------|

Listen to the song for rhythm/ timing etc.

Have fun! :)





Comments


Popular Warpaint tabs & chords
Elephants 1 Bass Tabs
Krimson 2 Bass Tabs
Baby Chords
Undertow Chords
Baby Tabs
Burgundy 1 Tabs
Composure Intro Tabs
Keep It Healthy Tabs
Krimson Tabs
Set Your Arms Down 3 Tabs


Song lyrics



↑ Back to top | Tablatures and chords are parodies/interpretations of the original songs. You may use it for private study, scholarship, research or language learning purposes only
© 2014 AZChords.com Contact us | Privacy policy | DMCA | Add/correct tabs | Request tabs | Top 50 tabs