>
 >
Guillotine 3

Guillotine 3 Guitar Tabs

Urban Dub - Guillotine 3 chords, tabs, tablatures, lyrics

Guitar lessons | Add/correct | Request | Top 50 tabs Artists:  A B C D E F G H I J K L M N O P Q R S T U V W X Y Z 0-9

Guillotine 3 Guitar Tabs – Urban Dub

CD, Sheet music, Poster

Do you like Guillotine 3? Share with your friends now
Bass TabsChordsTabsTabs v2Tabs v3Tabs v4Tabs v5Ukulele
Guillotine Tab by Urban Dub :
bty by:
09283150081


-----------------------------------------------------------------------
                               Tab #2
-----------------------------------------------------------------------
Guillotine Tab by Urban Dub :
 
Tuning- GtrI- (e b d g a D )
        GtrII-(e b d g a D )
note-
~=ring
^=bend
*=palm mute
()-ghost note(effects)
h=hammer
p-ulloff
x-dead
Intro-
1.
GtrI(effects)
|--------------------------------------------------------------|
|--------4-------4-------4-------4-------4--------4-------4----|
|-4----4---4---4---4---4---4---4---4---4---4----4---4---4---4--|
|----4-------4-------4-------4-------4--------4-------4------4-|
|--------------------------------------------------------------|
|--------------------------------------------------------------|
2.
GtrI(effects)
|--------------------------------------------------------------|
|--------4-------4-------4-------4-------4--------4-------4----|
|-4----4---4---4---4---4---4---4---4---4---4----4---4---4---4--|
|----4-------4-------4-------4-------4--------4-------4------4-|
|--------------------------------------------------------------|
|--------------------------------------------------------------|
GtrII
|-----------------------------------------------------------------|
|-----------------------------------------------------------------|
|-----------------------------------------------------------------|
|-----4-2~--2-4--x-------2-4--x------4-2~--2-4--x------2-4--x-----|
|-4/2-4-2~--2----x-4h6---2----x-4h6--4-2~--2----x-4h6--2----x-4h6-|
|-----4-2~--2----x-------2----x------4-2~--2----x------2----x-----|
      *     *    *       *    *      *     *    *      *    *
3.
GtrI(effects)
|--------------------------------------------------------------|
|--------4-------4-------4-------4-------4--------4-------4----|
|-4----4---4---4---4---4---4---4---4---4---4----4---4---4---4--|
|----4-------4-------4-------4-------4--------4-------4------4-|
|--------------------------------------------------------------|
|--------------------------------------------------------------|
GtrII
|-----------------------------------------------------------------|
|-----------------------------------------------------------------|
|-----------------------------------------------------------------|
|-----4-6~--6-4--x-------6-4--x------4-4~--6-4--x------6-4--x-----|
|-----4-6~--6----x-4h6---6----x-4h6--2-4~--6----x-4h6--6----x-4h6-|
|-----4-6~--6----x-------6----x--------4~--6----x------6----x-----|
            *    *       *    *           *     *      *    *    
VerseI-2x
GtrI
|-----------11~(11)-(11)---------------------------------------|
|----------------------14~(14)--(14)------11~(11)--(11)--------|
|--------------------------------------------------------------|
|--------------------------------------------------------------|
|--------------------------------------------------------------|
|--------------------------------------------------------------|
 
GtrII(delay)
|--------------------------------------------------------------|
|--------------------------------------------------------------|
|--------------------------------------------------------------|
|-4--4/6--6----------------------------------------------------|
|-4--4/6--6----------------------------------------------------|
|-4--4/6--6----------------------------------------------------|
2.
GtrI(delay)
|--------------------------------------------------------------|
|((11)))-12~(12)~(12)--11~(11)~ (11)---------------------------|
|-----------------------------------13~(13)~(13)--11~(11)~(11)-|
|--------------------------------------------------------------|2x
|--------------------------------------------------------------|
|--------------------------------------------------------------|
GtrII
|--------------------------|------------------------------------|
|--------------------------|------------------------------------|
|--------------------------|------------------------------------|
|-2~-----------------------|----4~------------------------------|
|-2~-----------------------|----4~------------------------------|
|-2~-----------------------|----4~------------------------------|
VerseII-
1.
GtrI
|------------------------------------------------------------|
|------------------------------------------------------------|
|------------------------------------------------------------|
|-4-/6--6~--4h6---------------4-/6--6~--4h6------------------|
|-4-/6----------4h6--2h4------4-/6----------4h6--2h4---------|
|-4-/6------------------------4-/6---------------------------|
GtrII
|------------------------------------------------------------|
|------------------------------------------------------------|
|---------------------44h66--------------------4h66----------|
|--4-/666-4-6----------------4-/666-4-6----------------------|
|--------------4-6-----------------------4-6-----------------|
|------------------------------------------------------------|
2.
GtrI
|------------------------------------------------------------|
|------------------------------------------------------------|
|------------------------------------------------------------|
|----4--2~--4h6-------------2--4--------4h6------------------|
|----4--2-------4h6--2h4----2--4-------------4h6--2h4--------|
|----4--2-------------------2--4-----------------------------|
GtrII
|--------------------------------------------------------------|
|--------------------------------------------------------------|
|--------------------- ----------------------------------------|
|-2-2-2-2-2-2-2-2-2-2-2-2-2-4-4-4-4-4-4-4-4-4-4-4-4-4-4-4-4-4--|
|-2-2-2-2-2-2-2-2-2-2-2-2-2-4-4-4-4-4-4-4-4-4-4-4-4-4-4-4-4-4--|
|-2-2-2-2-2-2-2-2-2-2-2-2-2-4-4-4-4-4-4-4-4-4-4-4-4-4-4-4-4-4--|
Prechorus-
GtrI& II
|--------------------------------------------------------------|
|--------------------------------------------------------------|
|--------------------------------------------------------------|
|-2-2-2-2-2-2-2-2-2-2-2-2-2-2-2-2-2-2-2-2-2-2------------------|
|-2-2-2-2-2-2-2-2-2-2-2-2-2-2-2-2-2-2-2-2-2-2------------------|
|-2-2-2-2-2-2-2-2-2-2-2-2-2-2-2-2-2-2-2-2-2-2------------------|
  * * * * * * * * * * * * * * * *    
Chorus-
GtrI 
|-----------------------------------------------------------------|--------|
|-----------------------------------------------------------------|--------|
|-9-9-9-9-9--1111111111-4-4-4-4-4--9-9-9-9-9-1111111111-4-4-4-4-4-|---8^r~-|
|-6-6-6-6-6--9-9-9-9-9--2-2-2-2-2--6-6-6-6-6-9-9-9-9-9--2-2-2-2-2-|-4------|
|-6-6-6-6-6--9-9-9-9-9--2-2-2-2-2--6-6-6-6-6-9-9-9-9-9--2-2-2-2-2-|-4------|
|-6-6-6-6-6--9-9-9-9-9--2-2-2-2-2--6-6-6-6-6-9-9-9-9-9--2-2-2-2-2-|-4------|
GtrII
II
|-----------------------------------------------------------------|------|
|-----------------------------------------------------------------|------|
|-----------------------------------------------------------------|------|
|-6-6-6-6-6--4-4-4-4-4-2-2-2-2-2--6-6-6-6-6--4-4-4-4-4-2-2-2-2-2--|-4-6~-|
|-6-6-6-6-6--2-2-2-2-2-2-2-2-2-2--6-6-6-6-6--2-2-2-2-2-2-2-2-2-2--|-4-6~-|
|-6-6-6-6-6------------2-2-2-2-2--6-6-6-6-6------------2-2-2-2-2--|-4-6~-|
 
Repeat VerseII 
Chorus-
GtrI 
|-----------------------------------------------------------------|
|-----------------------------------------------------------------|
|-9-9-9-9-9--1111111111-4-4-4-4-4--9-9-9-9-9-1111111111-4-4-4-4-4-|
|-6-6-6-6-6--9-9-9-9-9--2-2-2-2-2--6-6-6-6-6-9-9-9-9-9--2-2-2-2-2-|
|-6-6-6-6-6--9-9-9-9-9--2-2-2-2-2--6-6-6-6-6-9-9-9-9-9--2-2-2-2-2-|
|-6-6-6-6-6--9-9-9-9-9--2-2-2-2-2--6-6-6-6-6-9-9-9-9-9--2-2-2-2-2-|
GtrII
|-----------------------------------------------------------------|
|-----------------------------------------------------------------|
|-----------------------------------------------------------------|
|-6-6-6-6-6--4-4-4-4-4-2-2-2-2-2--6-6-6-6-6--4-4-4-4-4-2-2-2-2-2--|
|-6-6-6-6-6--2-2-2-2-2-2-2-2-2-2--6-6-6-6-6--2-2-2-2-2-2-2-2-2-2--|
|-6-6-6-6-6------------2-2-2-2-2--6-6-6-6-6------------2-2-2-2-2--|
InterludeI
1.
GtrI
|--------------------------------------------------------------|
|--------------------------------------------------------------|
|---9-8--9-8---------------------------------------------------|
|-----------------9-----9h11--8-9--11--9--8--------------------|
|-11----11-----11-----12---------------------------------------|
|--------------------------------------------------------------|


|--------------------------------------------------------------|
|--------------------------------------------------------------|
|---------11------------------11--------------------11---------|
|---8--9-----8--9--11----8--9-------8--9---11--8--9------------|
|--------------------------------------------------------------|
|--------------------------------------------------------------|


|--------------------------------------------------------------|
|--------------------------------------------------------------|
|---9-8--9-8--------------11-----------------------------------|
|-----------------9--8-9----8-9--11--9--8----------------------|
|-11----11----11-----------------------------------------------|
|--------------------------------------------------------------|


|--------------------------------------------------------------|
|--------------------------------------------------------------|
|---------11------------------11--------------------11---------|
|---8--9-----8--9--11----8--9-------8--9---11--8--9------------|
|--------------------------------------------------------------|
|--------------------------------------------------------------|
GtrII

|--------------------------------------------------------------|
|--------------------------------------------------------------|
|--------------------------------------------------------------|
|-66666666--9-9-9-9-9-9-9-9-9--66666666666---------------------|
|---------------------------------------------9-7---7-6--------|
|-------------------------------------------6------------------|


|--------------------------------------------------------------|
|--------------------------------------------------------------|
|--------------------------------------------------------------|
|--------------------------------------------------------------|
|----9-7----7-6----7-6---7-6----7-6---7-6---7-6----7-6---7-6---|
|--6------6------9-----9------9-----9-----9-----9------9-------|
Bridge-
1.
GtrI
|----------------~---------------------------------------------|
|--------------------------------------------------------------|
|--------------------------------------------------------------|
|-2222222222222222~4444444444444444~2~2~2~2~2~2~2~-~4~4~4~4~---|
|-2222222222222222~4444444444444444~2~2~2~2~2~2~2~-~4~4~4~4~---|
|-2222222222222222~4444444444444444~2~2~2~2~2~2~2~-~4~4~4~4~---|
  **************** ****************
2.
GtrI
|----------------~---------------------------------------------|
|--------------------------------------------------------------|
|-8/9--8\4--44444444-66666666-44444444-1111111111--------------|
|-x-x--x-x--xxxxxxxx-xxxxxxxx-xxxxxxxx-x-x-x-x-x---------------|
|-6/7--6\4--22222222-44444444-22222222-9-9-9-9-9---------------|
|--------------------------------------------------------------|

|----------------~---------------------------------------------|
|--------------------------------------------------------------|
|-8/9--8\4--44444444-66666666-88888888-1111111111--------------|
|-x-x--x-x--xxxxxxxx-xxxxxxxx-xxxxxxxx-x-x-x-x-x---------------|
|-6/7--6\4--22222222-44444444-66666666-9-9-9-9-9---------------|
|--------------------------------------------------------------|
GtrII
|----------------~---------------------------------------------|
|--------------------------------------------------------------|
|--------------------------------------------------------------|
|-----------22222222-44444444-66666666-99999-------------------|2x
|-----------22222222-44444444-66666666-99999-------------------|
|-----------22222222-44444444-66666666-99999-------------------|
 
BridgeII
GtrI
|----------------~---------------------------------------------|
|--------------------------------------------------------------|
|--------------------------------------------------------------|
|-4-/6-6xxxxxxxxxxxxxxxxxxxxxxxxxxx2-2xxxxxxxxxxxxx4-4xxxxxxxx-|
|-4-/6-6xxxxxxxxxxxxxxxxxxxxxxxxxxx2-2xxxxxxxxxxxxx4-4xxxxxxxx-|
|-4-/6-6xxxxxxxxxxxxxxxxxxxxxxxxxxx2-2xxxxxxxxxxxxx4-4xxxxxxxx-|
 
GtrII
|----------------~---------------------------------------------|
|--------------------------------------------------------------|
|--------------------------------------------------------------|
|-4-/6-6---------------------------2-2~------------4-4~--------|
|-4-/6-6---------------------------2-2~------------4-4~--------|
|-4-/6-6---------------------------2-2~------------4-4~--------|
2.
GtrI
(delay)
|--------------------------------------------------------------|
|----9~-(9)~-(9)~-(9)~-(9)------11~--(11)~--(11)~--(11)~-(11)~-|
|--------------------------------------------------------------|
|--------------------------------------------------------------|
|--------------------------------------------------------------|
|--------------------------------------------------------------|
GtrII
|----------------~---------------------------------------------|
|--------------------------------------------------------------|
|--------------------------------------------------------------|
|-2~-------------------------4~--------------------------------|
|-2~-------------------------4~--------------------------------|
|-2~-------------------------4~--------------------------------|
ChorusIII
GtrI
|----------------~---------------------------------------------|
|-(elevens)----------------------------------------------------|
|-11111111-44444444--88888888-11111111--44444444---------------|
|-99999999-22222222--66666666-99999999--22222222---------------|
|-99999999-22222222--66666666-99999999--22222222-(pause)-------|
|-99999999-22222222--66666666-99999999--22222222---------------|
GtrII
|----------------~---------------------------------------------|
|--------------------------------------------------------------|
|--------------------------------------------------------------|
|-99999999-22222222--66666666-99999999--22222222---------------|
|-99999999-22222222--66666666-99999999--22222222-(pause)-------|
|-99999999-22222222--66666666-99999999--22222222---------------|

then-
1.
GtrI
|----------------~---------------------------------------------|
|--------------------------------------------------------------|
|-----------44444444-66666666-88888888-1111111111--------------|
|-----------xxxxxxxx-xxxxxxxx-xxxxxxxx-x-x-x-x-x---------------|
|-----------22222222-44444444-66666666-9-9-9-9-9---------------|
|--------------------------------------------------------------|

GtrII
|----------------~---------------------------------------------|
|--------------------------------------------------------------|
|--------------------------------------------------------------|
|-----------22222222-44444444-66666666-9999999-----------------|
|-----------22222222-44444444-66666666-9999999-----------------|
|-----------22222222-44444444-66666666-9999999-----------------|
 
2.
GtrI
|----------------~---------------------------------------------|
|--------------------------------------------------------------|
|----99999999-1111111111111111-131313131313-1616161616161616---|
|----xxxxxxxx-x-x-x-x-x-x-x-x--x-x-x-x-x-x---x-x-x-x-x-x-x-x---|
|----77777777-9-9-9-9-9-9-9-9--111111111111-1414141414141414---|
|--------------------------------------------------------------|

GtrII
|----------------~---------------------------------------------|
|--------------------------------------------------------------|
|--------------------------------------------------------------|
|-----------22222222-44444444-66666666-9999999-----------------|
|-----------22222222-44444444-66666666-9999999-----------------|
|-----------22222222-44444444-66666666-9999999-----------------|
 
Outro-
GtrI
naka(waah-waah ata)
|----------------~----------------------------------|
|---------------------------------------------------|
|--44444444-66666666-1111/-9-/8-----11-/--9-/8------|
|--xxxxxxxx-xxxxxxxx-x-----x--x-----x-----x--x------|
|--22222222-44444444-9-9/--7-/6-----9--/--7-/6------|
|---------------------------------------------------|

|----------------------------------------|----------------------|
|----------------------------------------|----------------------|
|-11/1212-1212-1212----11/1212-1212-1212-|-121212121212121212---|
|-x--x-x--x-x--x-x-----x--x-x--x-x--x-x--|-x-x-x-x-x-x-x-x-x----|
|-9-/1111-1111-1111----9-/1111-1111-1111-|-111111111111111111---|
|----------------------------------------|----------------------|

GtrII
|----------------~--------------------------------------|
|----------------~--------------------------------------|
|----------------~--------------------------------------|
|-----------22222222-44444444-66666666-9999999----------|
|-----------22222222-44444444-66666666-9999999----------|
|-----------22222222-44444444-66666666-9999999----------|



|----------------~------------|---------|------------|
|-----------------------------|---------|------------|
|-----------------------------|-3-4-6---|------------|
|-----------22222222-44444444-|-x-x-x---|------------|
|-----------22222222-44444444-|-1-2-4---|-2-1---2-1--|
|-----------22222222-44444444-|---------|----4-----4-|
last part
then
|-----------------------------------------------------------------|
|-----------------------------------------------------------------|
|-----------------------------------------------------------------|
|-----------2-4--x-------2-4--x------4-2~--2-4--x------2-4--x-----|
|-----------2----x-4h6---2----x-4h6--4-2~--2----x-4h6--2----x-4h6-|
|-----------2----x-------2----x------4-2~--2----x------2----x-----|
            *    *       *    *      *     *    *      *    *
|----------------~---------------------------------------------|
|--------------------------------------------------------------|
|--------------------------------------------------------------|end
|-6---2-/4---4-------------------------------------------------|
|-6---2-/4---4-------------------------------------------------|
|-6---2-/4---4-------------------------------------------------| 





Comments


Popular Urban Dub tabs & chords
The Fight Is Over Bass Tabs
First Of Summer Chords
First Of Summer 2 Chords
Fallen On Deaf Ears Tabs
Fallen On Deaf Ears 3 Tabs
Frailty 2 Tabs
Gravity Tabs
Run Away Tabs
Sailin 1 Tabs
Stars And The Sun Ukulele


Song lyrics



↑ Back to top | Tablatures and chords are parodies/interpretations of the original songs. You may use it for private study, scholarship, research or language learning purposes only
© 2014 AZChords.com Contact us | Privacy policy | DMCA | Add/correct tabs | Request tabs | Top 50 tabs