>
 >
Guillotine

Guillotine Guitar Tabs

Urban Dub - Guillotine chords, tabs, tablatures, lyrics

Guitar lessons | Add/correct | Request | Top 50 tabs Artists:  A B C D E F G H I J K L M N O P Q R S T U V W X Y Z 0-9

Guillotine Guitar Tabs – Urban Dub

CD, Sheet music, Poster

Do you like Guillotine? Share with your friends now
Bass TabsChordsTabsTabs v2Tabs v3Tabs v4Tabs v5Ukulele
Guillotine Tab by Urban Dub :

pages/Arista-Lucena/226729694026830



Guillotine Tab by Urban Dub :
 
Tuning- GtrI- (eb bb gb db ab Db )-John Dinopol
        GtrII-(eb bb gb db ab Db )-Gaby Alipe
note-
~=ring
|-^=bend
*=palm mute
()-ghost note(effects/delays)
h=hammer
p-pull off
x-dead string
Intro-
1.
GtrI(effects)

|-------12-------12------12------12------12------12------12----|
|--------------------------------------------------------------|
|-10--10---10--10--10--10--10--10--10--10--10--10--10--10--10--|
|---10-------10------10------10------10------10------10-----10-|
|--------------------------------------------------------------|
|--------------------------------------------------------------|


2.
GtrI(effects)

|-------12-------12------12------12------12------12------12----|
|--------------------------------------------------------------|
|-10--10---10--10--10--10--10--10--10--10--10--10--10--10--10--|
|---10-------10------10------10------10------10------10-----10-|
|--------------------------------------------------------------|
|--------------------------------------------------------------|


GtrII
|-----------------------------------------------------------------|
|-----------------------------------------------------------------|
|-----------------------------------------------------------------|
|-----x-3~--3-5--x-------3-5--x------5-3~--3-5--x------3-5--x-----|
|-5/3-x-3~--3----x-5h7---3----x-5h7--5-3~--3----x-5h7--3----x-5h7-|
|-----x-3~--3----x-------3----x------5-3~--3----x------3----x-----|
      *     *    *       *    *            *    *      *    *
3.
GtrI(effects)

|-------12-------12------12------12------12------12------12----|
|--------------------------------------------------------------|
|-10--10---10--10--10--10--10--10--10--10--10--10--10--10--10--|
|---10-------10------10------10------10------10------10-----10-|
|--------------------------------------------------------------|
|--------------------------------------------------------------|
GtrII
|-----------------------------------------------------------------|
|-----------------------------------------------------------------|
|-----------------------------------------------------------------|
|-----5-7~--7-5--x-------7-5--x------5-5~--7-5--x------7-5--x-----|
|-----5-7~--7----x-5h7---7----x-5h7--3-5~--7----x-5h7--7----x-5h7-|
|-----5-7~--7----x-------7----x--------5~--7~---X------7----x-----|
            *    *       *    *            *    *      *    *  
 
VerseI-
GtrI
|-12-1010---12~(12)(12)----------------------------------------|
|-12-1010---------------15~(15)----12~(12)---------------------|
|--------------------------------------------------------------|
|--------------------------------------------------------------|
|--------------------------------------------------------------|
|--------------------------------------------------------------|


|----12~(12)(12)-----------------------------------------------|
|----------------15~(15)---------------------------------------|
|--------------------------------------------------------------|
|--------------------------------------------------------------|
|--------------------------------------------------------------|
|--------------------------------------------------------------|
 
GtrII(delay)
|--------------------------------------------------------------|
|--------------------------------------------------------------|
|--------------------------------------------------------------|
|-5--5/7--7----------------------------------------------------|
|-5--5/7--7----------------------------------------------------|
|-5--5/7--7----------------------------------------------------|
2.
GtrI(delay)
|--------------------------------------------------------------|
|((12)))-13~(13)~(13)--12~-(12)~-(12)--------------------------|
|-----------------------------------14~(14)~(14)--12~(12)~(12)-|
|--------------------------------------------------------------|
|--------------------------------------------------------------|
|--------------------------------------------------------------|

|--------------------------------------------------------------|
|----13-~(13)(13)(13)--12-~(12)(12)(12)------------------------|
|-----------------------------------------14~(14)(14)(14)-12~--|
|--------------------------------------------------------------|
|--------------------------------------------------------------|
|--------------------------------------------------------------|


GtrII
|--------------------------|------------------------------------|
|--------------------------|------------------------------------|
|--------------------------|------------------------------------|
|-3~-----------------------|----5~------------------------------|
|-3~-----------------------|----5~------------------------------|
|-3~-----------------------|----5~------------------------------|
VerseII-
1.
GtrI

|------------------------------------------------------------|
|------------------------------------------------------------|
|------------------------------------------------------------|
|-5-/7--7~--5h7--------------5-5-/7--7~--5h7-----------------|
|-5-/7----------5h7--3h5-----5-5-/7----------5h7--3h5--------|
|-5-/7-----------------------5-5-/7--------------------------|


GtrII

|------------------------------------------------------------|
|------------------------------------------------------------|
|-----------------5-77---------------------------------------|
|-5-/7-7777777777--------5-/7-7777777777---------------------|
|-5-/7-------------------5-/7--------------------------------|
|-5-/7-------------------5-/7--------------------------------|
2.
GtrI
|------------------------------------------------------------|
|------------------------------------------------------------|
|------------------------------------------------------------|
|----5--3~--5h7-------------3--5~-------5h7------------------|
|----5--3~------5h7--3h5----3--5~------------5h7--3h5--------|
|----5--3~------------------3--5~----------------------------|
GtrII
|--------------------------------------------------------------|
|--------------------------------------------------------------|
|--------------------------------------------------------------|
|-3-3-3-3-3-3-3-3-3-3-3-3-3-5-5-5-5-5-5-5-5-5-5-5-5-5-5-5-5-5--|
|-3-3-3-3-3-3-3-3-3-3-3-3-3-5-5-5-5-5-5-5-5-5-5-5-5-5-5-5-5-5--|
|-3-3-3-3-3-3-3-3-3-3-3-3-3-5-5-5-5-5-5-5-5-5-5-5-5-5-5-5-5-5--|
Prechorus-
GtrI& II
|--------------------------------------------------------------|
|--------------------------------------------------------------|
|--------------------------------------------------------------|
|-3-3-3-3-3-3-3-3-3-3-3-3-3-3-3-3-3-3-3-3-3-3------------------|
|-3-3-3-3-3-3-3-3-3-3-3-3-3-3-3-3-3-3-3-3-3-3------------------|
|-3-3-3-3-3-3-3-3-3-3-3-3-3-3-3-3-3-3-3-3-3-3------------------|
  * * * * * * * * * * * * * * * *  
 
Chorus-09283150081 
GtrI
|-------------------------------------------------------|
|-------------------------------------------------------|
|-4-4-444-/-1111-111111-4-4-444--/9\8-/9\8--/9\8-/9\8---|
|-x-x-xxx---x-x--x-x-x--x-x-xxx---x-x--x-x--x-x--x-x----|
|-2-2-222-/-9-9--9-9-9--2-2-222--/7\6-/7\6--/7\6-/7\6---|
|-------------------------------------------------------|
GtrII

|---------------------------------|
|---------------------------------|
|-9-9-9-9-9--5-5-5-5-5-5-5-5-5-5--|
|-7-7-7-7-7--5-5-5-5-5-3-3-3-3-3--|
|-7-7-7-7-7--3-3-3-3-3-3-3-3-3-3--|
|-7-7-7-7-7------------3-3-3-3-3--|

2.

GtrI
|-----------------------------------------------|--------|
|-----------------------------------------------|--------|
|-4-4-444-/-1111-111111--11/13-9-9-999-999-999~-|--7-9r~-|
|-x-x-xxx---x-x--x-x-x---x--x--x-x-xxx-xxx-xxx--|--x-----|
|-2-2-222-/-9-9--9-9-9---9/-11-7-7-777-777-777~-|--5-----|
|-----------------------------------------------|--------|

|---------------------------------------------|-------|
|---------------------------------------------|-------|
|-9-9-9-9-9-9-12-12-12-12-12-12--5-5-5-5-5-5--|-------|
|-7-7-7-7-7-7-10-10-10-10-10-10--3-3-3-3-3-3--|--5-7~-|
|-7-7-7-7-7-7-10-10-10-10-10-10--3-3-3-3-3-3--|--5-7~-|
|-7-7-7-7-7-7-10-10-10-10-10-10--3-3-3-3-3-3--|--5-7~-|

 
Repeat
 VerseII
Chorus-09283150081
GtrI
|-------------------------------------------------------|
|-------------------------------------------------------|
|-4-4-444-/-1111-111111-4-4-444--/9\8-/9\8--/9\8-/9\8---|
|-x-x-xxx---x-x--x-x-x--x-x-xxx--x-x---x-x---x-x--x-x---|
|-2-2-222-/-9-9--9-9-9--2-2-222--/7\6-/7\6--/7\6-/7\6---|
|-------------------------------------------------------|
GtrII

|---------------------------------|
|---------------------------------|
|-9-9-9-9-9--5-5-5-5-5-5-5-5-5-5--|
|-7-7-7-7-7--5-5-5-5-5-3-3-3-3-3--|
|-7-7-7-7-7--3-3-3-3-3-3-3-3-3-3--|
|-7-7-7-7-7------------3-3-3-3-3--|

2.

GtrI
|-----------------------------------------------|
|-----------------------------------------------|
|-4-4-444-/-1111-111111--11/13-9-9-999-999-999~-|
|-x-x-xxx---x-x--x-x-x---x--x--x-x-xxx-xxx-xxx--|
|-2-2-222-/-9-9--9-9-9---9/-11-7-7-777-777-777~-|
|-----------------------------------------------|

|---------------------------------------------|
|---------------------------------------------|
|-9-9-9-9-9-9-12-12-12-12-12-12--5-5-5-5-5-5--|
|-7-7-7-7-7-7-10-10-10-10-10-10--3-3-3-3-3-3--|
|-7-7-7-7-7-7-10-10-10-10-10-10--3-3-3-3-3-3--|
|-7-7-7-7-7-7-10-10-10-10-10-10--3-3-3-3-3-3--|
InterludeI
1.
GtrI

|---------------------------------------------------------|
|---------------------------------------------------------|
|-------------------------------------9/8\-9/8\-9/8\-9/8--|
|-77777777--1010101010101010-77777777-x-x--x-x--x-x--x-x--|
|-------------------------------------7/6\-7/6\-7/6\-7/6\-|
|---------------------------------------------------------|

|----------------|-------------------|----------------------------------|
|----------------|-------------------|----------------------------------|
|----------------|-------------------|----------------------------------|
|----------------|-------------------|-----3-2---3-2---3-2---3-2---3-2--|
|----8-7---10-8--|-----12-10-----7-8-|---3-----3-----3-----3-----3------|
|-7------7-------|-10--------10------|----------------------------------|
GtrII

|--------------------------------------------------------------|
|--------------------------------------------------------------|
|---10-9--10-9-------------------------------------------------|
|-----------------10----10-12--9-10--12--10--9-----------------|
|-12----12-----12-----12---------------------------------------|
|--------------------------------------------------------------|


|--------------------------------------------------------------|
|--------------------------------------------------------------|
|---------12------------------12--------------------12---------|
|---9--10----9--10-12----9--10------9--10--12--9--10-----------|
|--------------------------------------------------------------|
|--------------------------------------------------------------|


|--------------------------------------------------------------|
|--------------------------------------------------------------|
|---10-9--10-9-------------12----------------------------------|
|-----------------10--9-10----9-10--12--10--9------------------|
|-12----12-----12----------------------------------------------|
|--------------------------------------------------------------|


|--------------------------------------------------------------|
|--------------------------------------------------------------|
|---------12------------------12--------------------12---------|
|---9--10----9--10-12----9--10------9--10--12--9--10------555--|
|---------------------------------------------------------555--|
|---------------------------------------------------------555--|

Bridge-09283150081
1.
GtrI&II
|--------------------------------------------------------------|
|--------------------------------------------------------------|
|--------------------------------------------------------------|
|-3333333333333333-5555555555555555~3~3~3~3~3~3~3~-~5~5~5~5~---|
|-3333333333333333-5555555555555555~3~3~3~3~3~3~3~-~5~5~5~5~---|
|-3333333333333333-5555555555555555~3~3~3~3~3~3~3~-~5~5~5~5~---|
  **************** ****************


2.
GtrI
|----------------~---------------------------------------------|
|--------------------------------------------------------------|
|-9/10-9\7--55555555-77777777-55555555-1212121212121212--------|
|-x-x--x-x--xxxxxxxx-xxxxxxxx-xxxxxxxx-x-x-x-x-x-X-X-X---------|
|-7/8--7\5--33333333-55555555-33333333-1010101010101010--------|
|--------------------------------------------------------------|

|----------------~---------------------------------------------|
|--------------------------------------------------------------|
|-9/10-9\7--55555555-77777777-99999999-1212121212121212--------|
|-x-x--x-x--xxxxxxxx-xxxxxxxx-xxxxxxxx-x-x-x-x-x-X-X-X---------|
|-7/8--7\5--33333333-55555555-77777777-1010101010101010--------|
|--------------------------------------------------------------|
GtrII
|----------------~---------------------------------------------|
|--------------------------------------------------------------|
|--------------------------------------------------------------|
|-----------33333333-55555555-77777777-101010101010------------|2x
|-----------33333333-55555555-77777777-101010101010------------|
|-----------33333333-55555555-77777777-101010101010------------|
 
BridgeII
GtrI
|--------------------------------------------------------------|
|--------------------------------------------------------------|
|--------------------------------------------------------------|
|-5-/7-7xxxxxxxxxxxxxxxxxxxxxxxxxxx3-3xxxxxxxxxxxxx5-5xxxxxxxx-|
|-5-/7-7xxxxxxxxxxxxxxxxxxxxxxxxxxx3-3xxxxxxxxxxxxx5-5xxxxxxxx-|
|-5-/7-7xxxxxxxxxxxxxxxxxxxxxxxxxxx3-3xxxxxxxxxxxxx5-5xxxxxxxx-|
 
GtrII    
|----------------~---------------------------------------------|
|--------------------------------------------------------------|
|--------------------------------------------------------------|
|-5-/7-7---------------------------3-3-------------5-5---------|
|-5-/7-7---------------------------3-3-------------5-5---------|
|-5-/7-7---------------------------3-3-------------5-5---------|
2.
GtrI
(delay)
|--------------------------------------------------------------|
|-10~-(10)~-(10)~-(10)~-(10)----12~--(12)~--(12)~--(12)~-(12)~-|
|--------------------------------------------------------------|
|--------------------------------------------------------------|
|--------------------------------------------------------------|
|--------------------------------------------------------------|
GtrII
|----------------~---------------------------------------------|
|--------------------------------------------------------------|
|--------------------------------------------------------------|
|-3~-------------------------5~--------------------------------|
|-3~-------------------------5~--------------------------------|
|-3~-------------------------5~--------------------------------|
ChorusIII
GtrI                                                     

|-----------------------------------------------------------------|
|-----------------------------------------------------------------|
|-5555-4444-5555-4444--10101010-9999---1010-99---1010----14-14-14-|
|-xxxx-xxxx-xxxx-xxxx--x-x-x-x--xxxx---x-x--xx---x-x-----x--x--x--|
|-3333-2222-3333-2222--8-8-8-8--7777---8-8--77---8-8-----12-12-12-|
|-----------------------------------------------------------------|
                                           Your lust disguised as love!!!
                                               Gtar spin
|-----------------------------------------------|
|-----------------------------------------------|
|-4-4-444-/-1111-111111--11/13-9-9-999-999-999~-|
|-x-x-xxx---x-x--x-x-x---x--x--x-x-xxx-xxx-xxx--|
|-2-2-222-/-9-9--9-9-9---9/-11-7-7-777-777-777~-|
|-----------------------------------------------|

GtrII
|-----------------------------------------------------------------|
|-----------------------------------------------------------------|
|-----------------------------------------------------------------|
|-101010101010-33333333--77777777-101010101010--3333333333--------|
|-101010101010-33333333--77777777-101010101010--3333333333-(pause)|
|-101010101010-33333333--77777777-101010101010--3333333333--------|

then-
1.
GtrI
|----------------~---------------------------------------------|
|--------------------------------------------------------------|
|------55555555-77777777-55555555-1212121212121212-------------|
|------xxxxxxxx-xxxxxxxx-xxxxxxxx-x-x-x-x-x-X-X-X--------------|
|------33333333-55555555-33333333-1010101010101010-------------|
|--------------------------------------------------------------|

GtrII
|----------------~---------------------------------------------|
|--------------------------------------------------------------|
|--------------------------------------------------------------|
|-----------33333333-55555555-77777777-101010101010------------|
|-----------33333333-55555555-77777777-101010101010------------|
|-----------33333333-55555555-77777777-101010101010------------|
 
2.
GtrI
|----------------~----------------------------------------------|
|---------------------------------------------------------------|
|-10101010101010-1212121212121212-141414141414-1717171717171717-|
|-x-x-x-x-x-x-x--x-x-x-x-x-x-x-x--x-x-x-x-x-x--x-x-x-x-x-x-x-x--|
|-8-8-8-8-8-8-8--1010101010101010-121212121212-1515151515151515-|
|---------------------------------------------------------------|

GtrII
|----------------~---------------------------------------------|
|----------------~---------------------------------------------|
|--------------------------------------------------------------|
|--------------------------------------------------------------|
|-----------33333333-55555555-77777777-101010101010------------|
|-----------33333333-55555555-77777777-101010101010------------|
|-----------33333333-55555555-77777777-101010101010------------|
 
Outro-
GtrI
naka(waah-waah
 ata)

|---------------------------|-------------------------------|
|---------------------------|-------------------------------|
|-121212121212-121212121212-|1212/-1010/99--1212/-1010/99---|
|-x-x-x-x-x-x--x-x-x-x-x-x--|x-x---x-x--xx--x--x--x-x--xx---|
|-101010101010-101010101010-|1010/-8-8-/77--1010/-8-8-/77---|
|---------------------------|-------------------------------|

|----------------------------------------|--------------------|------------|
|----------------------------------------|--------------------|------------|
|-12/1414-1414-1414----12/1414-1414-1414-|-141414141414141414-|------------|
|-x--x-x--x-x--x-x-----x--x-x--x-x--x-x--|-x-x-x-x-x-x-x-x-x--|------------|
|-10/1212-1212-1212----10/1212-1212-1212-|-121212121212121212-|-3-2--3-2---|
|----------------------------------------|--------------------|-----5----5-|

GtrII
|----------------~---------------------------------------------|
|--------------------------------------------------------------|
|-----------5~-------7~-------1212/-1010/99--1212/-1010/99-----|
|-----------x~-------x~-------x-x---x-x--xx--x--x--x-x--xx-----|
|-----------3~-------5~-------1010/-8-8-/77--1010/-8-8-/77-----|
|--------------------------------------------------------------|
 

|----------------~------------|---------|------------|
|-----------------------------|---------|------------|
|-----------5~-------7~-------|-4-5-7---|------------|
|-----------x--------x--------|-x-x-x---|------------|
|-----------3~-------5~-------|-2-3-5---|-3-2---3-2--|
|-----------------------------|---------|----5-----5-|
last
 part
then
|-----------------------------------------------------------------|
|-----------------------------------------------------------------|
|-----------------------------------------------------------------|
|-----------3-5--x-------3-5--x------5-3~--3-5--x------3-5--x-----|
|-----------3----x-5h7---3----x-5h7--5-3~--3----x-5h7--3----x-5h7-|
|-----------3----x-------3----x------5-3~--3----x------3----x-----|
            *    *       *    *            *    *      *    *

|----------------~-------------------------------------------|
|------------------------------------------------------------|
|------------------------------------------------------------|end
|-5-3-/5---5-------------------------------------------------|
|-3-3-/5---5-------------------------------------------------|
|---3-/5---5-------------------------------------------------|

Verse-
1.
What's done is done
And we've crossed the line
Your indecision is taking over every time
2.
Your pride, my anger
Our situation is worse than ever

Verse-
1.
We've taken this too far
We've had our run
2.
With your arms wrapped tight
Around my neck
Close my eyes I sink and grasp for breath

pre-chorus
She's with someone new.

chorus
All hope is gone
And since you're never gonna change
I'll erase your taste and let you go slowly
Suddenly I wasn't enough
Your lust disguised as love.

verse
You're pushing me too far
We've had our run
With your arms wrapped tight
Around my neck
Close my eyes I sink and grasp for breath.

pre-
She's with someone new.

repeat chorus

bridge 
This whole time with me
Was just another lie
Threw my feelings up and down
You're just a little inconsiderate.

bridgeII-do verse I

Chorus---

Bridge-
All hope is gone..All hope is





Comments


Popular Urban Dub tabs & chords
A Call To Arms 1 Tabs
Anthem Tabs
Frailty Tabs
Frailty 1 Tabs
Future Tabs
Under Crisis Tabs
We Kept It Hidden Tabs
Gravity Ukulele
The Fight Is Over Ukulele
What This Night Brings Ukulele


Song lyrics



↑ Back to top | Tablatures and chords are parodies/interpretations of the original songs. You may use it for private study, scholarship, research or language learning purposes only
© 2014 AZChords.com Contact us | Privacy policy | DMCA | Add/correct tabs | Request tabs | Top 50 tabs