>
 >
Guillotine 1

Guillotine 1 Guitar Tabs

Urban Dub - Guillotine 1 chords, tabs, tablatures, lyrics

Guitar lessons | Add/correct | Request | Top 50 tabs Artists:  A B C D E F G H I J K L M N O P Q R S T U V W X Y Z 0-9

Guillotine 1 Guitar Tabs – Urban Dub

CD, Sheet music, Poster

Do you like Guillotine 1? Share with your friends now
Bass TabsChordsTabsTabs v2Tabs v3Tabs v4Tabs v5Ukulele
Drop C# tuning

INTRO [clean] ..resonance effect
eb|------------------------|
Bb|------5---5--5--5-------|
Gb|----5---5--5--5---------|
Db|---5-5---5--5--5--- <---|(kau na bhala sa timing)
Ab|------------------------|
Db|------------------------|

slide down...
eb|--17\--------------|
Bb|--17\--------------|
Gb|-------------------|
Db|-------------------|
Ab|-------------------|
Db|-------------------|

g.tar 1
eb|------------------------|
Bb|------------------------|
Gb|---5--------------------|
Db|--3--3h5----------- <---|(balik2 ra)
Ab|------------------------|
Db|------------------------|

g.tar 2 (*)<-- 1x lang
eb|-------------      -----------|
Bb|-------------      -----------|
Gb|-------------      -----------|
Db|--55--57*---- (2x) ---5-5/7-7-|
Ab|--55--57*----      ---5-5/7-7-|
Db|--55--57*----      ---5-5/7-7-|

VERSE 1
g.tar 1
eb|----------------|
Bb|--5x5x5---------|
Gb|--5x5x5---------|
Db|--5x5x5---  <---|(balik2 ra ghapon.. timinga ra)
Ab|----------------|
Db|----------------|

g.tar 2
eb|----------|
Bb|----------|
Gb|----------|
Db|--5-5/7-7-|
Ab|--5-5/7-7-|
Db|--5-5/7-7-|


Your pride, my anger..
eb|------------|
Bb|------------|
Gb|------------|
Db|--3~--5~----|
Ab|--3~--5~----|
Db|--3~--5~----|

VERSE 2
eb|------------------------|
Bb|------------------------|
Gb|------------------------|
Db|--5-5/7-7-5h7-5/7-5h7-5-|  (2x)
Ab|--5-5/7-7-----5/7-----5-|
Db|--5-5/7-7-----5/7-----5-|

eb|----------------------|
Bb|----------------------|
Gb|----------------------|
Db|--3-3/5-5h7-3/5-5h7-5-|
Ab|--3-3/5-----3/5-----5-|
Db|--3-3/5-----3/5-----5-|


She's with someone new..
eb|--------------------|
Bb|--------------------|
Gb|--------------  <---|(timinga ra bords..dghan na notes)
Db|--333--555----------|
Ab|--333--555----------|
Db|--333--555----------|
     ...  ...


CHORUS-- All hope is gone..
eb|--------------------------------|
Bb|--------------------------------|
Gb|--------------------------------|
Db|--555--555--333--(555)- [2x]<---|(kaskasin mo! timinga ra pod)
Ab|--333--555--333--(555)----------|
Db|--333--555--333--(555)----------|

repeat VERSE 2 & CHORUS

g.tar 1
eb|-------------------|
Bb|-------6p5---------|
Gb|--5----------------|
Db|-5-5-7------- <----|repeat
Ab|-------------------|
Db|-------------------|

g.tar 2
eb|---------------------------|
Bb|-------------5-------------|
Gb|--55555577777-75-----------|
Db|----------------777-- <----| (timinga ra bords. daghan na cya)
Ab|---------------------------|
Db|---------------------------|

She's with someone new..
eb|--------------------------------|
Bb|--------------------------------|
Gb|--------------------------  <---|(timinga ra bords..dghan na notes)
Db|--333--555--3~-5~-5h7p5p3-------|
Ab|--333--555--3~-5~---------------|
Db|--333--555--3~-5~---------------|
     ...  ...


This whole time with me
Was just another lie...
eb|-------------------------|
Bb|-------------------------|
Gb|-------------------------|
Db|--3~--5~--7~--5~-5h7p5p3-| (2x) timinga ra.. kamo na bhla
Ab|--3~--5~--7~--5~---------|
Db|--3~--5~--7~--5~---------|

g.tar 2
eb|----------------|
Bb|----------------|
Gb|----------------|
Db|--5-5/7-7-- <---|(balik2 ra ghapon.. timinga ra)
Ab|--5-5/7-7-------|
Db|--5-5/7-7-------|

g.tar 1
eb|--------
Bb|--xxx---
Gb|--xxx---
Db|--xxx---  <--(balik2 ra ghapon.. timinga ra)
Ab|--xxx---
Db|--xxx---

Oh oh.. with u..
eb|------------|
Bb|------------|
Gb|------------|
Db|--3~--5~----|
Ab|--3~--5~----|
Db|--3~--5~----|

repeat CHORUS


OUTRO
eb|--------------------------------------|
Bb|--------------------------------------|
Gb|--------5553255532-5h77577(3x)--------|
Db|--5~-7~-------------------------------|
Ab|--3~-5~------------------------32-32--|
Db|---------------------------------5--5-|

eb|------------------------|
Bb|------------------------|
Gb|---5--------------------|
Db|--3--3h5----------- <---|(balik2 ra)
Ab|------------------------|
Db|------------------------|

g.tar 2
eb|------------------|
Bb|------------------|
Gb|------------------|
Db|--55------5-5/7-7-|
Ab|--55------5-5/7-7-|
Db|--55------5-5/7-7-|

P.S. paminawa sa ang track pra makasabot ka..





Comments


Popular Urban Dub tabs & chords
Life Is Easy Bass Tabs
Face In The Woods Chords
Safety In Numbers Chords
The Fight Is Over 1 Chords
An Invitation Tabs
First Of Summer 1 Tabs
Frailty 2 Tabs
Soul Searching 5 Tabs
The Fight Is Over 1 Tabs
Under Crisis Tabs


Song lyrics



↑ Back to top | Tablatures and chords are parodies/interpretations of the original songs. You may use it for private study, scholarship, research or language learning purposes only
© 2014 AZChords.com Contact us | Privacy policy | DMCA | Add/correct tabs | Request tabs | Top 50 tabs