>
 >
Evidence

Evidence Guitar Tabs

Urban Dub - Evidence chords, tabs, tablatures, lyrics

Guitar lessons | Add/correct | Request | Top 50 tabs Artists:  A B C D E F G H I J K L M N O P Q R S T U V W X Y Z 0-9

Evidence Guitar Tabs – Urban Dub

CD, Sheet music, Poster

Do you like Evidence? Share with your friends now
Bass TabsChordsChords v2TabsTabs v2Tabs v3Tabs v4Ukulele
by
Cp #-09283150081
SHC(BSN) Lucena

Tuning- eb bb gb db ab Eb
this is based on the myx live tugtugan...




Intro-
Verse-
EM7
Time has a way of healing or so they say
   EbM7or Gm
So why am I still left here to cry?

|-x---------------------3~---------|
|-9~-------------------3~----------|
|--8~-----------------2~-----------|
|---6~---------------x~------------|
|----7~-------------x~-------------|
|------------------3~--------------|

Verse-
GtrI Do EM7 Gm
GtrII
EM7(x7689x)                 Gm    EM7(x7689x)
|-7--77--77--77---77--|-6-6--6-6-|-77--77-----|
|-9--99--99--99---99--|-8-8--8-8-|-99--99-----|
|-8--88--88--88---88--|-7-7--7-7-|-88--88-----|
|-9--99--99--99---99--|-8-8--8-8-|-99--99-----|
|-x--xx--xx--xx---xx--|-x-x--x-x-|-xx--xx-----|
|---------------------|----------|------------|

C#m7(9xx99x)
|---------------------------------------------------|
|---------------------------------------------------|
|-----9----9-----9-----9----9-----9----9-----9------|
|-11----11----11----11---11-----11---11---11--------|
|---------------------------------------------------|
|---------------------------------------------------|

Em7(x7978x)
|---------------------------------------------------|
|----7-----7------7----7-----7-----7-----7----------|
|-8-----8------8----8----8------8-----8----8--------|
|---------------------------------------------------|
|---------------------------------------------------|
|------------ --------------------------------------|

C#m7(9xx99x)                                         Em7(x7978x)
|---------------------------------------------------|------|
|-----9----9-----9-----9----9-----9----9-----9------|-9~---|
|--9----9-----9-----9-----9----9-----9----9---------|-8~---|
|---------------------------------------------------|------|
|---------------------------------------------------|------|
|---------------------------------------------------|------|


Chorus-B(79987x) B/E(09987x) C#m7(x46454) (x7978x)2x

2x
|----------9--------9-------9------9-------9-----9------9------|
|----12------12-------12------12-----12-----12-----12-----12---|
|-11----11-----11--------11------11-----11-----11----11-----11-|
|--------------------------------------------------------------|
|--------------------------------------------------------------|
|--------------------------------------------------------------|

|---9--------9-------9------9---------|-------------------------------|
|----12-------12------12-----12-------|--------12------12----12-------|
|-------11--------11------11-----11---|----11-----11-----11-----11----|
|-------------------------------------|-13---13------13----13------13-|
|-------------------------------------|-------------------------------|
|-------------------------------------|-------------------------------|

Interlude-
EM7(x7689x)  (delay)                        Gm(3xx233)
|-77--77---77---77---77--77--|-------------------------------------------|
|-99--99---99---99---99--99--|-11-10-8-------------11-10-8---------------|
|-88--88---88---88---88--88--|---------7-------------------7-------------|
|-99--99---99---99---99--99--|------------10p8-10p8-----------10p8--10p8-|
|-xx--xx---xx---xx---xx--xx--|-------------------------------------------|
|----------------------------|-------------------------------------------|


Verse-
EM7(x7689x)                      C#m7(9xx99x) 
|--------------|--------------|----------------|--------------|
|--------------|--------------|----------------|--------------|
|--------9-8~--|---------9-8~-|-----------9-8~-|--------9-8~--|
|-9--11--------|-9--11--------|---9--11--------|--9--11-------|
|--------------|--------------|----------------|--------------|
|--------------|--------------|----------------|--------------|

EM7(x7689x)                        C#m7(9xx99x) 
|---------12-11~-|-------12-11~--|-----------------|-------------|
|-12 --14--------|-12--14--------|----------14-12~-|-----14--12~-|
|----------------|---------------|------13---------|---13--------|
|----------------|---------------|---14------------|-14----------|
|----------------|---------------|-----------------|-------------|
|----------------|---------------|-----------------|-------------|

Repeat Chorus-

BridgeI-G#m(466444) B(79987x) B/E(09987x)2x
GtrI
|---------------------------------------------------------------------|
|-----------------11-12-------------11-12-----------------------------|
|-88888~~11111111~~----1111111111111-----1111111111111-1313-1313-1313-|
|---------------------------------------------------------------------|
|---------------------------------------------------------------------|
|---------------------------------------------------------------------|

|---------------------------------------------------------------------|
|-------------------11-12---------------------------------------------|
|-88888~~11111111~~------111111111111111111~--------/------13~--------|
|---------------------------------------------------------------------|
|---------------------------------------------------------------------|
|---------------------------------------------------------------------|

GtrIII optional
|----------------9h11p9--------------------9h11p9---------------------|
|-----------------------12------------------------12------------------|
|--------------------------11~-----------------------11~--------------|
|---------------------------------------------------------------------|2x
|---------------------------------------------------------------------|
|---------------------------------------------------------------------|

solo- 
GtrI
|---------------------------------------------|
|---------------------------------------------|
|--6/8-6~--4/6-4~-----4h6s--6^(8)6p4-6-4~-----|
|---------------------------------------------|
|---------------------------------------------|
|---------------------------------------------|

|---------------------------------------------|
|--------------------------14^(16)14-14-12~---|
|-3--5-3--------3-----------------------------|
|---------3h4h5---5s--------------------------|
|---------------------------------------------|
|---------------------------------------------|
GtrII-EM7(x7689x)- EbM7  (may delay sa last part ng solo)
Verse-

C#m7(9xx99x) 
|---------------------------------------------------|
|---------------------------------------------------|
|-----9----9-----9-----9----9-----9----9-----9------|
|-11----11----11----11---11-----11---11---11--------|
|---------------------------------------------------|
|---------------------------------------------------|

 Em7(x7978x)
|---------------------------------------------------|
|----7-----7------7----7-----7-----7-----7----------|
|-8-----8------8----8----8------8-----8----8--------|
|---------------------------------------------------|
|---------------------------------------------------|
|------------ --------------------------------------|

C#m7(9xx99x)                                       Em7(x7978x)
|---------------------------------------------------|-----|
|---------------------------------------------------|-9~--|
|-----9----9-----9-----9----9-----9----9-----9------|-8~--|
|-11----11----11----11---11-----11---11---11--------|-----|
|---------------------------------------------------|-----|
|---------------------------------------------------|-----|


Interlude II-
GtrI
G#m                                   BM7
|-11-------11-------11-----11------|-------14-----14-----14-----14-------|
|----12-------12-------12----12----|---12-----12-----12-----12----12-----|
|-------13-------13------13----13--|-13--13-----13------13----13-----13--|
|----------------------------------|-------------------------------------|2x
|----------------------------------|-------------------------------------|
|----------------------------------|-------------------------------------|

GtrII
|-11-------11-------11-----11------|--------9------9------9-----9--------|
|----12-------12-------12----12----|---12-----12-----12-----12----12-----|
|-------13-------13------13----13--|-11---11-----11-----11-----11----11--|
|----------------------------------|-------------------------------------|2x
|----------------------------------|-------------------------------------|
|----------------------------------|-------------------------------------|

Repeat Chorus-

Outro-GtrI do chorus

|--------------|--------------|----------------|--------------|
|--------------|--------------|----------------|--------------|
|--------9-8~--|---------9-8~-|-----------9-8~-|--------9-8~--|
|-9--11--------|-9--11--------|---9--11--------|--9--11-------|
|--------------|--------------|----------------|--------------|
|--------------|--------------|----------------|--------------|

|---------12-11~-|-------12-11~--|-----------------|-------------|
|-12--14---------|-12--14--------|----------14-12~-|-----14--12~-|
|----------------|---------------|------13---------|---13--------|
|----------------|---------------|---14------------|-14----------|
|----------------|---------------|-----------------|-------------|
|----------------|---------------|-----------------|-------------|


EM7
Time has a way of healing or so they say
   EbM7or Gm
So why am I still left here to cry?

|-x---------------------3~---------|
|-9~-------------------3~----------|
|--8~-----------------2~-----------|
|---6~---------------x~------------|
|----7~-------------x~-------------|
|------------------3~--------------|


then verse 1...

kung di kayo maalam mag tune to half step wag nyo ng subukan kasi hindi talaga katunog 
standard ok...





Comments


Popular Urban Dub tabs & chords
A New Tattoo Bass Tabs
No Ordinary Love Bass Tabs
First Of Summer 2 Chords
Frailty Chords
Give Chords
Stars And The Sun Chords
What This Night Brings Chords
Fallen On Deaf Ears 3 Tabs
Guillotine Ukulele
Run Away Ukulele


Song lyrics



↑ Back to top | Tablatures and chords are parodies/interpretations of the original songs. You may use it for private study, scholarship, research or language learning purposes only
© 2014 AZChords.com Contact us | Privacy policy | DMCA | Add/correct tabs | Request tabs | Top 50 tabs