>
 >
Endless A Silent Whisper

Endless A Silent Whisper Chords

Urban Dub - Endless A Silent Whisper chords, tabs, tablatures, lyrics

Guitar lessons | Add/correct | Request | Top 50 tabs Artists:  A B C D E F G H I J K L M N O P Q R S T U V W X Y Z 0-9

Endless A Silent Whisper Chords – Urban Dub

CD, Sheet music, Poster

Do you like Endless A Silent Whisper? Share with your friends now
Bass TabsBass Tabs v2ChordsTabsTabs v2Ukulele
Title		: Endless, A silent Whisper
Artist		: Urbandub
Album		: Embrace





---------------
STANDARD TUNING|
---------------

I really love the SOng. Medyo Parang Love song SIya Pero Rock.
Asteeeg! Power chords lang gamitin nyo dito.


-------
Intro 1|
-------


Guitar 1: Lead Guitar

e|-7-7-7-7-7-7-7-7-7-|-7-7-7-7-7-7-7-7-7-7-7-7-7-7-7-|
B|-------------------|-------------------------------|
G|-------------------|-------------------------------|
D|-------------------|-------------------------------|  
A|-------------------|-------------------------------|
E|-------------------|-------------------------------|


Guitar 2: Rhythm guitar(clean)

e|-------------------|-------------------------------|
B|-------------------|-------------------------------|
G|-------------------|-------------------------------|
D|-------------------|-6-6-6-6-6-6-6-6-6-6-6-6-6-6-6-|  
A|-------------------|-6-6-6-6-6-6-6-6-6-6-6-6-6-6-6-|
E|-------------------|-4-4-4-4-4-4-4-4-4-4-4-4-4-4-4-|


Guitar 1: Lead Guitar

e|-777777777777777--|-666666666/777/9999-------------|
B|------------------|--------------------------------|
G|------------------|--------------------------------|
D|------------------|--------------------------------|  
A|------------------|--------------------------------|
E|------------------|--------------------------------|

Guitar 2: Rhythm guitar(clean)

e|------------------|------------------------------|
B|------------------|------------------------------|
G|------------------|-3X4X3X4X3X4X3X4X-------------|
D|-8X9X8X9X8X9X8X9--|-6X6X6X6X6X6X6X6X-------------|  
A|-6X6X6X6X6X6X6X6--|-4X4X4X4X4X4X4X4X-------------|
E|-4X4X4X4X4X4X4X4--|------------------------------|


Guitar 1: Lead Guitar

e|------------------|--------------------------------|
B|-999999999\777\555|-44444444444--0-----------------|
G|------------------|--------------------------------|
D|------------------|--------------------------------|  
A|------------------|--------------------------------|
E|------------------|--------------------------------|


Guitar 2: Rhythm guitar(clean)

e|------------------|------------------------------|
B|------------------|------------------------------|
G|------------------|-3X4X3X4X3X4X3X4X-------------|
D|-8X9X8X9X8X9X8X9--|-6X6X6X6X6X6X6X6X-------------|  
A|-6X6X6X6X6X6X6X6--|-4X4X4X4X4X4X4X4X-------------|
E|-4X4X4X4X4X4X4X4--|------------------------------|

-------
Intro 2| Abm-C#m;2x
-------


-------
Verse 1|
-------
                         
    Abm              C#m(fast release)-C#m         
The night belongs to us,

                     Abm
Were caught in the world

                            C#m        
of our own we cling to the hope it would change for us


-------
Verse 2| (Medyo may pagka reggae yung strumming dito)
-------

           Abm                          C#m
Is it in vain?,or is it to late why did it have to be you than I?

-------
REfrain|
-------

E                   B
i heard the news today

-------
Chorus |
-------

B                       
  Is this the beginning of our last dance?

Abm
  Once around the floor can we do it again

Em                               C#m
  i feel the thrill from words we say  I love you


  
-------
Verse 3|
-------


   Abm                                 C#m
Embrace so much tighter this could our last together

               Abm                                         
heaven shed`s tears for the wounded hearts 

       C#m
Our forever has been torn apart



---------
REfrain 2|
---------

     E                   F#                Abm                   B                          
our vast religion wont help us answer what was pre-destined for us to have

        E                       Em                 B      
since long ago is hopeless the world it turns with us

             Abm                      Em          
hold me in closer and dont let of me now we close our eyes and let go

                B-Abm                          
through the night

       Em
the night we feel alive.


-------
Chorus |
-------

B                       
  Is this the beginning of our last dance?

Abm
  Once around the floor can we do it again

Em                               C#m
  i feel the thrill from words we say  I love you


Outro: Abm-C#m



For comments send me a message in Friendster. 


And u Can also add me as your friend Or send me a testimonial.hehehe
God bless!


Thanks.
Rock oUt.
 
 
 
 
 





Comments


Popular Urban Dub tabs & chords
A New Tattoo Bass Tabs
The Fight Is Over 2 Chords
We Kept It Hidden 2 Chords
A New Tattoo 1 Tabs
Alert The Armory Tabs
Anthem Tabs
Boy Tabs
Run Away 3 Tabs
Soul Searching 1 Tabs
Fallen On Deaf Ears Ukulele


Song lyrics



↑ Back to top | Tablatures and chords are parodies/interpretations of the original songs. You may use it for private study, scholarship, research or language learning purposes only
© 2014 AZChords.com Contact us | Privacy policy | DMCA | Add/correct tabs | Request tabs | Top 50 tabs