>
 >
Guillotine

Guillotine Bass Tabs

Urban Dub - Guillotine chords, tabs, tablatures, lyrics

Guitar lessons | Add/correct | Request | Top 50 tabs Artists:  A B C D E F G H I J K L M N O P Q R S T U V W X Y Z 0-9

Guillotine Bass Tabs – Urban Dub

CD, Sheet music, Poster

Do you like Guillotine? Share with your friends now
Bass TabsChordsTabsTabs v2Tabs v3Tabs v4Tabs v5Ukulele
Guillotine Tab by Urban Dub :
 
Tuning-Ba ssI- ( db gb ab Db )
      
note-
~=ring
h=hammer
p-pulloff
x-dead string
Intro-
1.

|--------------------------------------------------------------|
|--------------------------------------------------------------|
|--------------------------------------------------------------|
|--------------------------------------------------------------|
2.


|-----------------------------------------------------------------|
|-----------------------------------------------------------------| 
|-----------------------------------------------------------------|
|-----x-3-3-3-3-3-3-3-3-3-3-3-3-3-5--3-3-3-3-3-3-3-3-3-3-3-3-3-3--|
       
3.
 

|-----------------------------------------------------------------|
|-----------------------------------------------------------------|
|-----------------------------------------------------------------|
|-------------------------------3---------------------------------|
|-----5-7-7-7-7-7-7-7-7-7-7-7-7---7-7-7-7-7-7-7-7-7-7-7-7-7-7-----|

 
VerseI-


|--------------------------------------------------------------|
|--------------------------------------------------------------|
|--------------------------------------------------------------|2x 
|-5--5/7--7----------------------------------------------------|
2.

|--------------------------|------------------------------------|
|--------------------------|------------------------------------|
|--------------------------|------------------------------------|
|-3~-----------------------|----5~------------------------------|
VerseII-
1.
                      

|------------------------------------------------------------|
|------------------------------------------------------------|
|------------------------------------------------------------|
|-----------5h7--------------------------5h7-----------------|
|---------------5h7--3h5--------- -----------5h7--3h5--------|
|-5-/7--7--------------------5-5-/7--------------------------|



2.

|--------------------------------------------------------------|
|--------------------------------------------------------------|
|--------------------------------------------------------------|
|-3-3-3-3-3-3-3-3-3-3-3-3-3-5-5-5-5-5-5-5-5-5-5-5-5-5-5-5-5-5--|
Prechorus-
 
|--------------------------------------------------------------|
|--------------------------------------------------------------|
|--------------------------------------------------------------|
|-3-3-3-3-3-3-3-3-3-3-3-3-3-3-3-3-3-3-3-3-3-3------------------|
  
 
Chorus-
 
|-----------------------------------------------------------------|--------|
|-----------------------------------------------------------------|--------|
|-----------------------------------------------------------------|--------|
|-7777777--101010101010-3333333--7777777-101010101010-333333333---|-5-7~---|

 
Repeat
 VerseII
Chorus-
  
            
|-----------------------------------------------------------------|
|-----------------------------------------------------------------|
|-----------------------------------------------------------------|
|-7777777--101010101010-3333333--7777777-101010101010-333333333---|
InterludeI
|-----------------------------------------------------------------|
|-----------------------------------------------------------------|
|-----------------------------------------------------------------|
|-7777777--101010101010-3333333--7777777-101010101010-333333333---|
Bridge-
1.

|--------------------------------------------------------------|
|--------------------------------------------------------------|
|--------------------------------------------------------------| 
|-33---------------55----------------3~-3~-3~-3~-5~-5~-5~-5~---|
2.


|----------------~---------------------------------------------|
|--------------------------------------------------------------|
|--------------------------------------------------------------|2x
|-----------33333333-55555555-77777777-101010101010------------|
 
BridgeII

|----------------~---------------------------------------------|
|--------------------------------------------------------------|
|--------------------------------------------------------------|
|-5-/7-7---------------------------3-3~------------5-5~--------|
2.  

|----------------~---------------------------------------------|
|--------------------------------------------------------------|
|--------------------------------------------------------------|
|-3~-------------------------5~--------------------------------|
ChorusIII
 

                   
|----------------~------------------------------------------------|
|----------------~------------------------------------------------|
|----------------~---------------------------------break----------|
|-101010101010-33333333--77777777-101010101010--3~----------------|

then-
1.

|--------------------------------------------------------------|
|--------------------------------------------------------------|
|--------------------------------------------------------------|
|-----------33333333-55555555-77777777-101010101010------------|
 
2.
  

|--------------------------------------------------------------|
|--------------------------------------------------------------|
|--------------------------------------------------------------|
|-----------33333333-55555555-77777777-101010101010------------|
Outro-


|--------------------------------------------------------------|
|--------------------------------------------------------------|
|--------------------------------------------------------------|
|-----------33333333-55555555-77777777-101010101010------------|

|--------------------------------------------------------------|
|--------------------------------------------------------------|
|---------------------------------3-2----3-2-------------------|
|-----------33333333-55555555---------5------5-----------------|
last
 part
then
|-----------------------------------------------------------------|
|-----------------------------------------------------------------|
|-----------------------------------------------------------------|
|-------------5--x---------5--x--------------5--x--------5--x-----|
|----------------x-5h7--------x-5h7-------------x-5h7-------x-5h7-|
|-----------3----x-------3----x------5-3~--3----x------3----x-----|

|------------------------------------------------------------|
|------------------------------------------------------------|
|-3----------------------------------------------------------|
|---3-/5---5-------------------------------------------------|





Comments


Popular Urban Dub tabs & chords
Evidence Bass Tabs
Tongue Like Knives Chords
Would You Go Chords
A New Tattoo Tabs
Come Tabs
Guillotine 1 Tabs
Run Away 2 Tabs
Under Crisis Tabs
A New Tatoo Ukulele
The Apparition Ukulele


Song lyrics



↑ Back to top | Tablatures and chords are parodies/interpretations of the original songs. You may use it for private study, scholarship, research or language learning purposes only
© 2014 AZChords.com Contact us | Privacy policy | DMCA | Add/correct tabs | Request tabs | Top 50 tabs