» » »

Guillotine Tabs (ver.3)

Artists:  A B C D E F G H I J K L M N O P Q R S T U V W X Y Z # 

Guillotine Tabs (ver.3)

Urban Dub
Rating:
4/5 (3 votes)

Hard to play? Try these video lessons and learn fast.
                
Tuning: Drop D  half step down
Legend: / - slide up
        \ - slide down
        h - hammer
	p - pull-off
	x - dead note
	* - repeat several times
	~ - Let it ring
       PM - palm mute

*For corrections, suggestions,etc... Just post it here or message me personally.* 

*Listen carefully to the song to get the timing.*

Intro (2 Gtrs)

Eb|-----------------------------------------||
Bb|-----------------------------------------||
Gb|-5-5--5--5--5--5--5--5-------------------|| 
Db|--9--9--9--9--9--9--9--------------------||
Ab|-----------------------------------------||
Db|-------------------------\\\\\\\\\\\-----||  *start distortion at slide*
  |                                         || 
Eb|---12-12-12-12-12-12-12--w/effects-------||
Bb|-----------------------------------------||
Gb|-----------------------------------------|| 
Db|-----------------------------------------||
Ab|-----------------------------------------||
Db|-----------------------------------------||


Eb|---------------------------------------||
Bb|---------------------------------------||
Gb|---------------------------------------|| 
Db|-33-5----3-5----5-7-3-5----3-5----5-7--||
Ab|-33--5-7-3--5-7-5-7-3--5-7-3--5-7-5-7--||
Db|-33------3------5-7-3------3------5-7--||
  |                                       || 
Eb|-12-12-12-12-12-12-12-12-12-12-12-12---||
Bb|---------------------------------------||
Gb|---------------------------------------|| 
Db|---------------------------------------||
Ab|---------------------------------------||
Db|---------------------------------------||
    
                                     
Eb|------------------------------------------||
Bb|------------------------------------------||
Gb|------------------------------------------|| 
Db|-7-5----7-5----7-7-7-5----7-5----5-5h7-7--||
Ab|-7--5-7-7--5-7-7-7-7--5-7-7--5-7-5-5h7-7--||
Db|-7------7------7-7-7------7------5-5h7-7--||
  |                                          ||
Eb|-12-12-12-12-12-12-12-12-12--12-1010h1212-||
Bb|------------------------------------------||
Gb|------------------------------------------|| 
Db|------------------------------------------||
Ab|------------------------------------------||
Db|------------------------------------------||
                                          

Verse1 (2 Gtrs)

What’s done...      Your indecision...
Eb|---------------------------------------||
Bb|---------------------------------------||
Gb|---------------------------------------|| 
Db|------------5h7-7----------------------||
Ab|------------5h7-7----------------------||
Db|------------5h7-7----------------------||
  |                                       ||						
Eb|---------------------------------------||
Bb|---------------------------------------||
Gb|-9-9-9-9-9--------9-9-9-9-9------------|| 
Db|-x-x-x-x-x--------x-x-x-x-x------------||
Ab|-x-x-x-x-x--------x-x-x-x-x------------||
Db|---------------------------------------||
                                            
     Your pride, my anger
Eb|-------------------------------------||
Bb|-------------------------------------||
Gb|-------------------------------------|| 
Db|-3~-------------5~-------------------||
Ab|-3~-------------5~-------------------||
Db|-3~-------------5~-------------------||
  |                                     || 
Eb|-888777---------888777---------------||
Bb|-------101010888------101010888------||
Gb|-------------------------------------|| 
Db|-------------------------------------||
Ab|-------------------------------------||
Db|-------------------------------------||

      We’ve taken...    We’ve had
Eb|-----------------------------------||
Bb|-----------------------------------||
Gb|-----------------------------------|| 
Db|-5h7-7-7-7-7-7-5h7-7-7-7-7-7-------||
Ab|-5h7-7-7-7-7-7-5h7-7-7-7-7-7-------||
Db|-5h7-7-7-7-7-7-5h7-7-7-7-7-7-------||
  |                                   || 
Eb|-----------------------------------||
Bb|-----------------------------------||
Gb|------------557---------55---------|| 
Db|----77777777-----77777777----------||
Ab|-----------------------------------||
Db|-----------------------------------||

   With your arms...
Eb|---------------------------------------||
Bb|---------------------------------------||
Gb|---------------------------------------|| 
Db|-3-3-3-3-3-3-3-3-5-5-5-5-5-5-5-5-------||
Ab|-3-3-3-3-3-3-3-3-5-5-5-5-5-5-5-5-------||
Db|-3-3-3-3-3-3-3-3-5-5-5-5-5-5-5-5-------||
  |                                       || 
Eb|---------------------------------------||
Bb|---------------------------------------||
Gb|---------------------------------------|| 
Db|---------------------------------------||
Ab|---------5-7-3-5---------5-7-3-5-------||
Db|----------------5---------------5------||


PreChorus 

      She's with someone new
PM------------------------------PM
Eb|-----------------------------||
Bb|-----------------------------||
Gb|-----------------------------|| 
Db|--3-3-3-3-3-3-3-3-3-3-3-3xx--||
Ab|--3-3-3-3-3-3-3-3-3-3-3-3xx--||
Db|--3-3-3-3-3-3-3-3-3-3-3-3xx--||
    
                             
Chorus (2 Gtrs)

  All hope is gone...       ...let you go            
Eb|---------------------------------------||
Bb|---------------------------------------||
Gb|---------------------------------------|| 
Db|-7-7-7-7-7-1010101010-3-3-3-3-3-3-3-3--||
Ab|-7-7-7-7-7-1010101010-3-3-3-3-3-3-3-3--||
Db|-7-7-7-7-7-1010101010-3-3-3-3-3-3-3-3--||
  |                                       || 
Eb|---------------------------------------||
Bb|---------------------------------------||
Gb|---------------------------------------|| 
Db|---------------------------------------||
Ab|-----------------------------/12/12/12-||
Db|---------------------------------------||

   Slowly...                  ...as love
Eb|---------------------------------------------||
Bb|---------------------------------------------||
Gb|---------------------------------------------|| 
Db|-7-7-7-7-7-1010101010-3-3-3-3-3-3-3-3-5-7~---||
Ab|-7-7-7-7-7-1010101010-3-3-3-3-3-3-3-3-5-7~---||
Db|-7-7-7-7-7-1010101010-3-3-3-3-3-3-3-3-5-7~---||
  |                                             ||
Eb|---------------------------------------------||
Bb|---------------------------------------------||
Gb|--------------------------------------10-9~--|| 
Db|---------------------------------------------||
Ab|---------------------------------------------||
Db|---------------------------------------------||


Verse2 (2 Gtrs)

      You’re pushing....   We’ve had our run
Eb|-----------------------------------||
Bb|-----------------------------------||
Gb|-----------------------------------|| 
Db|-5-5h7-7-7-7-7-7-5h7-7-7-7-7-7-----||
Ab|-5-5h7-7-7-7-7-7-5h7-7-7-7-7-7-----||
Db|-5-5h7-7-7-7-7-7-5h7-7-7-7-7-7-----||
  |                                   || 
Eb|-----------------------------------||
Bb|-----------------------------------||
Gb|---------------557---------557-----|| 
Db|-------77777777-----77777777-------||
Ab|-----------------------------------||
Db|-----------------------------------||

   With your arms....        breath.
Eb|---------------------------------------||
Bb|---------------------------------------||
Gb|---------------------------------------|| 
Db|-3-3-3-3-3-3-3-3-5-5-5-5-5-5-5-5-------||
Ab|-3-3-3-3-3-3-3-3-5-5-5-5-5-5-5-5-------||
Db|-3-3-3-3-3-3-3-3-5-5-5-5-5-5-5-5-------||
  |                                       || 
Eb|---------------------------------------||
Bb|---------------------------------------||
Gb|---------------------------------------|| 
Db|---------------------------------------||
Ab|---------5-7-3-5---------5-7-3-5-------||
Db|----------------5---------------5------||


Chorus2 (2 Gtrs)

  All hope is gone...       ...let you go            
Eb|---------------------------------------||
Bb|---------------------------------------||
Gb|---------------------------------------|| 
Db|-7-7-7-7-7-1010101010-3-3-3-3-3-3-3-3--||
Ab|-7-7-7-7-7-1010101010-3-3-3-3-3-3-3-3--||
Db|-7-7-7-7-7-1010101010-3-3-3-3-3-3-3-3--||
  |                                       || 
Eb|---------------------------------------||
Bb|---------------------------------------||
Gb|---------------------------------------|| 
Db|---------------------------------------||
Ab|-----------------------------/12/12/12-||
Db|---------------------------------------||

   Slowly...                  ...as love
Eb|---------------------------------------||
Bb|---------------------------------------||
Gb|---------------------------------------|| 
Db|-7-7-7-7-7-1010101010-3-3-3-3-3-3-3-3--||
Ab|-7-7-7-7-7-1010101010-3-3-3-3-3-3-3-3--||
Db|-7-7-7-7-7-1010101010-3-3-3-3-3-3-3-3--||


Solo (2 Gtrs)

Eb|---------------------------------------||
Bb|---------------------------------------||
Gb|---------------------------------------|| 
Db|-7-7-7-7-7-1010101010-3-3-3-3-3-3-3-3--||
Ab|-7-7-7-7-7-1010101010-3-3-3-3-3-3-3-3--||
Db|-7-7-7-7-7-1010101010-3-3-3-3-3-3-3-3--||
  |					  ||
Eb|-----------------------3-------3-------||
Bb|--6-5--6-5-5----------3----3--3----3---||
Gb|-------------5-5h7---5--5-5--5--5-5----|| 
Db|-7----7--------------------------------||
Ab|---------------------------------------||
Db|---------------------------------------||

Eb|---------------------------------------||
Bb|---------------------------------------||
Gb|---------------------------------------|| 
Db|-----------1010101010------------------||
Ab|--8-7--8-7-1010101010--8-7-8-7-8-7-8-7-||
Db|-7----7----1010101010-7---7---7---7----||
  |                                       ||
Eb|-----------------------3-------3-------||
Bb|--6-5--6-5-5----------3----3--3----3---||
Gb|-------------5-5h7---5--5-5--5--5-5----|| 
Db|-7----7--------------------------------||
Ab|---------------------------------------||
Db|---------------------------------------||

Bridge (2 Gtrs)

   She's with someone new  She's with someone new
PM---------------------------------------------------PM
Eb|--------------------------------------------------||
Bb|--------------------------------------------------||
Gb|--------------------------------------------------|| 
Db|-3-3-3-3-3-3-3-3-3-3-3-3-5-5-5-5-5-5-5-5-5-5-5-5--||
Ab|-3-3-3-3-3-3-3-3-3-3-3-3-5-5-5-5-5-5-5-5-5-5-5-5--||
Db|-3-3-3-3-3-3-3-3-3-3-3-3-5-5-5-5-5-5-5-5-5-5-5-5--||

   She's with someone new  She's with someone new
PM-----------------------------------------------------PM
Eb|----------------------------------------------------||
Bb|----------------------------------------------------||
Gb|----------------------------------------------------|| 
Db|-7-7-7-7-7-7-7-7-7-7-7-7-1010101010101010101010-----||
Ab|-7-7-7-7-7-7-7-7-7-7-7-7-1010101010101010101010-----||
Db|-7-7-7-7-7-7-7-7-7-7-7-7-1010101010101010101010-----||
  |                                                    ||
Eb|----------------------------------------------------||
Bb|----------------------------------------------------||
Gb|----------------------------------------------------|| 
Db|----------------------------------------------------||
Ab|--------------------------------------------7h8p7\3-||
Db|----------------------------------------------------||


  This whole....
Eb|-------------------------||
Bb|-------------------------|| 
Db|-3-3-3-3-3-3-5-5-5-5-5-5-||
Ab|-3-3-3-3-3-3-5-5-5-5-5-5-||
Db|-3-3-3-3-3-3-5-5-5-5-5-5-||
  |                         ||
Eb|-------------------------||
Bb|-------------------------||
Gb|-5~----------7~----------|| 
Db|-x-----------x-----------||
Ab|-3~----------5~----------||
Db|-------------------------||

   Threw my feelings...
Eb|------------------------------||
Bb|------------------------------||
Gb|------------------------------|| 
Db|-7-7-7-7-7-7--1010101010------||
Ab|-7-7-7-7-7-7--1010101010------||
Db|-7-7-7-7-7-7--1010101010------||
  |                              ||
Eb|------------------------------||
Gb|-5~-----------7~--------------|| 
Db|-x------------x---------------||
Ab|-3~-----------5~------7h8p7\3-||
Db|------------------------------||

   This whole....
Eb|-------------------------||
Bb|-------------------------|| 
Db|-3-3-3-3-3-3-5-5-5-5-5-5-||
Ab|-3-3-3-3-3-3-5-5-5-5-5-5-||
Db|-3-3-3-3-3-3-5-5-5-5-5-5-||
  |                         ||
Eb|-------------------------||
Bb|-------------------------||
Gb|-5~----------7~----------|| 
Db|-x-----------x-----------||
Ab|-3~----------5~----------||
Db|-------------------------||
  
 Was just another lie...
Eb|---------------------------||
Bb|---------------------------||
Gb|---------------------------|| 
Db|-7-7-7-7-7-7--1010101010---||
Ab|-7-7-7-7-7-7--1010101010---||
Db|-7-7-7-7-7-7--1010101010---||
  |                           ||
Eb|---------------------------||
Gb|-9~-----------12~----------|| 
Db|-x------------x------------||
Ab|-7~-----------10~----------||
Db|---------------------------||


           What’s...   ...crossed the line
Eb|-----------------------------------------||
Bb|-----------------------------------------||
Gb|-----------------------------------------|| 
Db|-5h7-7--x-x-x-x-x-x-x-x-x-x-x-x-x-x-x-x--||
Ab|-5h7-7--x-x-x-x-x-x-x-x-x-x-x-x-x-x-x-x--||
Db|-5h7-7--x-x-x-x-x-x-x-x-x-x-x-x-x-x-x-x--||

Your indecision...      every time
Eb|----------------------------------||
Bb|----------------------------------||
Gb|----------------------------------|| 
Db|-x-x-x-x-x-x-x-x-x-x-x-x-x-x-x-x--||
Ab|-x-x-x-x-x-x-x-x-x-x-x-x-x-x-x-x--||
Db|-x-x-x-x-x-x-x-x-x-x-x-x-x-x-x-x--||


   Your pride,my anger     Our situation... 
Eb|----------------------------------||
Bb|----------------------------------||
Gb|----------------------------------|| 
Db|-x-x-x-x-x-x-x-x-x-x-x-x-x-x-x-x--||
Ab|-x-x-x-x-x-x-x-x-x-x-x-x-x-x-x-x--||
Db|-x-x-x-x-x-x-x-x-x-x-x-x-x-x-x-x--||
  |                                  ||
Eb|----------------------------------||
Bb|----------------------------------||
Gb|----------------------------------|| 
Db|-333------------------555---------||
Ab|-333------------------555---------||
Db|-333------------------555---------||


PreChorus2 (2 Gtrs) 

     Oh oh...
Eb|-------------------------||
Bb|-------------------------||
Gb|-------------------------|| 
Db|-3~-----------5~---------||
Ab|-3~-----------5~---------||
Db|-3~-----------5~---------||
  |                         ||
Eb|-5-5-5-5-5-5--7-7-7-7-7--||
Bb|---w/effect--------------||
Gb|-------------------------|| 
Db|-------------------------||
Ab|-------------------------||
Db|-------------------------||

Last Chorus (2 Gtrs) 

   All hope is gone...  I’ll erase your taste...
Eb|-------------------------------------------||
Bb|-------------------------------------------||
Gb|-------------------------------------------|| 
Db|-10101010101010101010-3-3-3-3-3-3-3-3-3-3--||
Ab|-10101010101010101010-3-3-3-3-3-3-3-3-3-3--||
Db|-10101010101010101010-3-3-3-3-3-3-3-3-3-3--||
  
   Slowly...   Suddenly...	       as love
Eb|----------------------------------------------||
Bb|----------------------------------------------||
Gb|----------------------------------------------|| 
Db|-7-7-7-7-7-7-101010101010-3-3-3-3-3-----------||
Ab|-7-7-7-7-7-7-101010101010-3-3-3-3-3pause------||
Db|-7-7-7-7-7-7-101010101010-3-3-3-3-3-----------||

   All hope is gone... 
Eb|-------------------------||
Bb|-------------------------||
Gb|-------------------------||  
Db|-3-3-3-3-3-3-5-5-5-5-5-5-||
Ab|-3-3-3-3-3-3-5-5-5-5-5-5-||
Db|-3-3-3-3-3-3-5-5-5-5-5-5-||

   All hope is gone... 
Eb|------------------------------||
Bb|------------------------------||
Gb|------------------------------|| 
Db|-7-7-7-7-7-7--1010101010------||
Ab|-7-7-7-7-7-7--1010101010------||
Db|-7-7-7-7-7-7--1010101010------||

   All hope is gone... 
Eb|-------------------------||
Bb|-------------------------|| 
Db|-3-3-3-3-3-3-5-5-5-5-5-5-||
Ab|-3-3-3-3-3-3-5-5-5-5-5-5-||
Db|-3-3-3-3-3-3-5-5-5-5-5-5-||
  |                         ||
Eb|-------------------------||
Bb|-------------------------||
Gb|-10~---------12~---------|| 
Db|-x-----------x-----------||
Ab|-8~----------10~---------||
Db|-------------------------||

   All hope is gone... 
Eb|-----------------------------||
Bb|-----------------------------||
Gb|-----------------------------|| 
Db|-7-7-7-7-7-7-1010101010------||
Ab|-7-7-7-7-7-7-1010101010------||
Db|-7-7-7-7-7-7-1010101010------||
  |                             ||
Eb|-----------------------------||
Gb|-14~----------17~------------|| 
Db|-x------------x--------------||
Ab|-12~----------15~------------||
Db|-----------------------------||

Outro (2 Gtrs)

Eb|---------------------------------------||
Bb|---------------------------------------||
Gb|-5---7-----12-109--12--109-------------|| 
Db|-x---x------x-x-x--x---x-x-------------||
Ab|-3---5-----10-8-7--10--8-7-------------||
Db|---------------------------------------||
  |                                       || 
Eb|---------------------------------------||
Bb|---------------------------------------||
Gb|-545454545451212101012121010-w/effect--|| 
Db|---------------------------------------||
Ab|---------------------------------------||
Db|---------------------------------------||

Eb|---------------------------------------||
Bb|---------------------------------------||
Gb|-5---7---4--5--7-----------------------|| 
Db|-x---x---x--x--x-----------------------||
Ab|-3---5---2--3--5------3-2---3-2--------||
Db|--------------------------5-----5------||
  |                                       || 
Eb|---------------------------------------||
Bb|---------------------------------------||
Gb|-12h14141412h14141414*-w/effect--------|| 
Db|---------------------------------------||
Ab|-----------------------3-2---3-2-------||
Db|---------------------------5-----5-----||

Last Riff

Eb|------------------------------------------||
Bb|------------------------------------------||
Gb|------------------------------------------|| 
Db|-3-5----3-5----5-7-3-5----3-5----5-5h7-7~-||
Ab|-3--5-7-3--5-7-5-7-3--5-7-3--5-7-5-5h7-7~-||
Db|-3------3------5-7-3------3------5-5h7-7~-||


                   \end/


Lyrics

What’s done is done
And we’ve crossed the line
Your indecision is taking over every time
Your pride, my anger
Our situation is worse than ever

We’ve taken this too far
We’ve had our run
With your arms wrapped tight
around my neck
Close my eyes I sink and grasp for breath
She’s with someone new.

All hope is gone
And since you’re never gonna change
I’ll erase your taste and let you go slowly
Suddenly I wasn’t enough
Your lust disguised as love.

You’re pushing me too far
We’ve had our run
With your arms wrapped tight
around my neck
Close my eyes I sink and grasp for breath.

She’s with someone new.

This whole time with me
Was just another lie
Threw my feelings up and down
You’re just a little inconsiderate.
            
Hard to play? Try these video lessons and learn fast. | Correct




comments powered by Disqus
↑ Back to top | Tablatures and chords are parodies/interpretations of the original songs. You may use it for private study, scholarship, research or language learning purposes only