>
 >
Soul Searching

Soul Searching Guitar Tabs

Urban Dub - Soul Searching chords, tabs, tablatures, lyrics

Guitar lessons | Add/correct | Request | Top 50 tabs Artists:  A B C D E F G H I J K L M N O P Q R S T U V W X Y Z 0-9

Soul Searching Guitar Tabs – Urban Dub

CD, Sheet music, Poster

Do you like Soul Searching? Share with your friends now
Bass TabsTabsTabs v2Tabs v3Tabs v4Tabs v5Tabs v6Tabs v7
IntroI (Do this 4 times)
E--------------------------------------|
B|-------------------------------------|
G|-------------------------------------|
D|-------------------------------------|
A|-----5-5-------7-7-7-7-6-6-6-7-7-----|
E|-4-4-----7-7-7-------------------7-7-|

IntroII Gtr.1 (Do this 4 times)
E|--------------------------------------------|
B|--------------------------------------------|
G|---------x-4-4-4-x-6-6-6-x------------------|
D|-6-6-2-2-x-4-4-4-x-6-6-6-x------------------|
A|-6-6-2-2-x-2-2-2-x-4-4-4-x------------------|
E|-4-4-0-0-x----------------------------------|

IntroII Gtr.2 (Do first 2 lines of Gtr. 1 then do this for 2 times)
E|-----------------------|
B|-----------------------|
G|-3-3-4-4-x-8-8-x-11-11-|
D|-x-x-x-x-x-x-x-x-x--x--|
A|-1-1-2-2-x-6-6-x-9--9--|
E|-----------------------|

VerseI Gtr.1 (Do this 8 times)
E--------------------------------------|
B|-------------------------------------|
G|-------------------------------------|
D|-------------------------------------|
A|-----5-5-------7-7-7-7-6-6-6-7-7-----|
E|-4-4-----7-7-7-------------------7-7-|
pm - - - - - - - - - - - - - - - - - -

VerseI Gtr. 2 (After Gtr.1 does his 4th line, Gtr. 2 enters. At verseII Gtr.2 does this immediately after each line.)
E|-----|
B|-----|
G|-----|
D|-6-6-|
A|-6-6-|
E|-4-4-|

Pre-chorus (Do introII 5 times.)

Chorus
E|-----------------------------|                       |-------------------------------|
B|-----------------------------|                       |-------------------------------|
G|---------------6-6-6-6-6-6-6-| Do this 3 times, then |-------------------------------|
D|-2-2-2-2-2-2-2-6-6-6-6-6-6-6-|                       |-7-7-7-7-7-7-7-7-7-7-7-7-7-7-7-|
A|-2-2-2-2-2-2-2-4-4-4-4-4-4-4-|                       |-7-7-7-7-7-7-7-7-7-7-7-7-7-7-7-|
E|-0-0-0-0-0-0-0---------------|                       |-5-5-5-5-5-5-5-5-5-5-5-5-5-5-5-|

Post-chorus Gtr.1
E|------------------------------------------------------|
B|------------------------------------------------------|
G|------------------------------------------------------|
D|------------------------------------------------------|
A|-----5-5-------7-7-7-7-6-6-6-7-7---------5-5-------7-7|
E|-4-4-----7-7-7-------------------7-7-4-4-----7-7-7----|

VerseII Gtr.1&2 (Same as VerseI)

Pre-chorus
Chorus

Bridge
E|------------------------------------------------------------------|
B|------------------------------------------------------------------|
G|--5-5-5-5-5-5-5-5-5---------------5-5-5-5-5-5-5-5-5---------------|
D|--5-5-5-5-5-5-5-5-5-2-2-2-2-2-2-2-5-5-5-5-5-5-5-5-5-2-2-2-2-2-2-2-|
A|--4-4-4-4-4-4-4-4-4-2-2-2-2-2-2-2-4-4-4-4-4-4-4-4-4-2-2-2-2-2-2-2-|
E|--------------------0-0-0-0-0-0-0-------------------0-0-0-0-0-0-0-|

E|------------------------------------------------------------------|
B|------------------------------------------------------------------|
G|--5-5-5-5-5-5-5-5-5---------------5-5-5-5-5-5-5-5-5---------------|
D|--5-5-5-5-5-5-5-5-5-2-2-2-2-2-2-2-5-5-5-5-5-5-5-5-5-2-2-2-2-2-2-2-|
A|--4-4-4-4-4-4-4-4-4-2-2-2-2-2-2-2-4-4-4-4-4-4-4-4-4-2-2-2-2-2-2-2-|
E|--------------------0-0-0-0-0-0-0-------------------0-0-0-0-0-0-0-|
pm  - - - - - - - - - - - - - - - - - - - - - - - - - - - - - - - -

Chorus
IntroII

-Salamat kay toppetd15ph sa pag-correct nung tab ko. Rate nyo naman! Asteg!





Comments


Popular Urban Dub tabs & chords
Bright City Kids Chords
Safety In Numbers Chords
We Kept It Hidden 2 Chords
Alert The Armory 4 Tabs
An Invitation Tabs
Breakdown Tabs
Sailin Tabs
She Keeps Me Warm Tabs
Bright City Kids Ukulele
Good Morning Bones Ukulele


Song lyrics



↑ Back to top | Tablatures and chords are parodies/interpretations of the original songs. You may use it for private study, scholarship, research or language learning purposes only
© 2014 AZChords.com Contact us | Privacy policy | DMCA | Add/correct tabs | Request tabs | Top 50 tabs