» » »

Pyretta Blaze Tabs (ver.2)

Artists:  A B C D E F G H I J K L M N O P Q R S T U V W X Y Z # 

Pyretta Blaze Tabs (ver.2)

Type O Negative
Rating:
0/5 (0 votes)

Hard to play? Try these video lessons and learn fast.
                I'm not saying these are perfect. if you get the solo tabbed, 
i'd like to talk to you.

Standard tuning down a fourth (b-e-a-d-g-b) or something close to that, i'm not into figuring note names out.

 P.H.                                       +=1/2 step bend
|play----|--------------------------------------|-----------------------|
|first---|--------------------------------------|-----------------------|
|time----|--------------------------------------|-----------------------|
|--------|-----------------4---------4----------|-/6---6---6---6---6----|
|--------|-------2-3-4-5-6---6-5-4-2---2^4^2^1--|----6---5---4-------4+-|
|-X-(12)\|-2-3-4--------------------------------|----------------7------|



verse:
    "Beautiful and dangerous" .... make sure you get the rhythm right. and instead of playing the C and D as tied notes, just make things easier and do a full-step bend on the 2nd fret. sounds closer to the album too. 
         pm.      pm                                    (2times)
||------------------------------------------------------------||
||------------------------------------------------------------||
||------------------------------------------------------------||
||-4--4--4-4---6--6-6-6-6-------------------------------------||
||-2--2--2-2-X-4--4-4-4-4\------------------------------------||
||-------------2--2-2-2----2^4-2--2^4-2--2^4-2--2^4-2--2^4-2\-||
         
        "Like a moth drawn to a flame     I'm the same" ... I prefer just doing this by feel, but once you get the chords down, it's a breeze.
      pm........|    ..........|     ......|       ............|
||----------------------------------------------------------------||
||----------------------------------------------------------------||
||----------------------------------------------------------------||
||-3--4-4-4-4-4-4-6--6-6-6-6-6-6-/9--9-9-9-9-9/-1111111111111111\-||
||-2--2-2-2-2-2-2-4--4-4-4-4-4-4-/7--7-7-7-7-7/8/9-9-9-9-9-9-9-9\-||
||--------------------------------7--7-7-7-7-7/8/9-9-9-9-9-9-9-9\-||

   "All cremated equally"... Simple.
         pm..|      pm
||-------------------------||
||-------------------------||
||-------------------------||
||-4--4--4-4-4-------------||
||-2--2--2-2-2-4--4-4-4-4\-||
||-------------2--2-2-2----||



Repeat Verse

CHORUS: (2times)
(clean guitar)
    "You are the first..." ... easy, once again.
||--------------------------------------------------------------------||
||--------------------------------------------------------------------||
||-8-8-8-x-x-x-x-x-10-10-10-x-x-x-x-x-6-6-6-x-x-x-x-x-----------------||
||-8-8-8-x-x-x-x-x-10-10-10-x-x-x-x-x-6-6-6-x-x-x-x-x-----5^6-8---8---||
||-6-6-6-x-x-x-x-x--8--8--8-x-x-x-x-x-4-4-4-x-x-x-x-x-6-8-------6---6-||
||--------------------------------------------------------------------||
 
      "Aaaaaah               Pyretta blaze" ... I don't play the little ending lick anymore, sounds more like it's on bass.
||----------------------------------------------------------------------||
||----------------------------------------------------------------------||
||10-10-10-x-x-x-x-x-6-6-6-x-x-x-x-x-8-8-8-x-x-x-x-x--------------------||
||10-10-10-x-x-x-x-x-6-6-6-x-x-x-x-x-8-8-8-x-x-x-x-x-/13-13-13----11-13-||
||-8--8--8-x-x-x-x-x-4-4-4-x-x-x-x-x-6-6-6-x-x-x-x-x--------------------||
||----------------------------------------------------------------------||

                                             +=1/2 step bend 
||------------------------------------|-----------------------||
||------------------------------------|-----------------------||
||------------------------------------|-----------------------||
||------------------4---------4-------|-/6---6---6---6---6----||
||--------2-3-4-5-6---6-5-4-2---2^4^2-|----6---5---4---2---4+-||
||--2-3-4-----------------------------|-----------------------||

Guitar solo rhythm fig.
too lazy to tab the lead part. Besides, it's single notes. you can figure
it out within a few days.. i hope..
||-----------------------------------------------------||
||-----------------------------------------------------||
||-----------------------------------------------------||
||-6--6-6-/13--13-13-12-11-10-9--9-9-8-9/12-11-11-11---||
||-4--4-4-/11--11-11-10--9--8-7--7-7-6-7/11--9--9--9-\-||
||-----------------------------------------------------||

Repeat verse/chorus.

CHORUS w/ Distortion:(half time feel) -cough-. easy... just make sure you get that little tiny riff at the end right. also, it might be one string lower, i can't be screwed to remember it. 
"You are the first....                        Pyretta Blaze"
||----------------------------------------------------------------------||
||----------------------------------------------------------------------||
||----------------------------------------------------------------------||
||-8--8--10--10---6--6--8---------(8)/10----6------8--11-10-------------||
||-6--6---8---8---4--4--6---------(6)/-8----4------6--------10-8/10/8^10||
||----------------------------------------------------------------------||

OUTRO:
||-------------------------|
||-------------------------|
||-------------------------|
||--------6^4--------------|
||------6-----6----------4-|
||-4-4----------7-7--4^7---|
Outro Reverse part:(kicks in in the middle somewhere)
|----------|
|----------|
|----------|
|-4^6------|
|----6----6|
|-----4-4--|
(with notes/feedback etc etc until end)
            
Hard to play? Try these video lessons and learn fast. | Correct




comments powered by Disqus
↑ Back to top | Tablatures and chords are parodies/interpretations of the original songs. You may use it for private study, scholarship, research or language learning purposes only