>
 >
Love You To Death

Love You To Death Guitar Tabs

Type O Negative - Love You To Death chords, tabs, tablatures, lyrics

Guitar lessons | Add/correct | Request | Top 50 tabs Artists:  A B C D E F G H I J K L M N O P Q R S T U V W X Y Z 0-9

Love You To Death Guitar Tabs – Type O Negative

CD, Sheet music, Poster

Do you like Love You To Death? Share with your friends now
Tabs
******************************************************
**    "Love you to death" - Type O Negative         **
**                                                  **
******************************************************

Type-O tuning from low to high (B,E,A,D,F#,B)

{ This is still my favorite TON song, listen to how
  many different sounds are being used and all in
  perfect harmony. }

INTRO [notes in parenth.=violin, rest is piano.]
|-(/5)(4)|------7--7---7------------7--6----------4--|
|--------|-----(5)------------------------7--5--7----|
|--------|(6)------------6---------------------------|
|--------|-----------------6-5-4----------------4-6--|
|--------|-4---------------------------------7-------|
|--------|-------------------------------------------|


|----------------------------9-7-9-12--11---|
|---------------------------7------------12-|
|-6-------------6----------6----------------|
|-----------------6-5-4---------------------|
|-4------------------------------------9-11-|
|----------------------------------12-------|
              "In her place...burning"
              "A salty sweat...breast"

|-------------------------------------------|
|-------------------------------------------|
|-6-------------6---------------------------|
|-----------------6-5-4----------------4--6-|
|-4---------------------------------7-------|
|-------------------------------------------|
 "Her hips...saying, swaying,       They..."


|-----12--11---9---7---6---4---2---0---0-2--|
|14h16--14--12---9---7---5---4---2---0------|
|-6----------------------6------------------|
|--------------------------6-5-4------------|
|-4-----------------------------------------|
|-------------------------------------------|
 "...beast inside,                      get"


[notes in parenth.=piano, rest is dist.gtr.]
|-----------|(7)---(7)-(7)-----(7)---------(7)-(6)----------(4)-|
|-----------|-------0---0---0---0------------------(7)(5)(7)----|
|-----------|-6-----4---4---4---4-----------4---3---------------|
|-----------|-6-----6---6---6---6-------4---4---4---4-----------|
|-/7!--6----|-4-----4---4---4---4-4-----4---4---4---4-----------|
|---------7-|---------*---*---*-----4-3-2---2-*-2-*-2--0--2--4--|
pluck string       mute mute mute           mute mute


{Verse; dots are palm mutes}
|-----------------------------------------------------------------|
|-----------------------------------------------------------------|
|-6-------6-----6-----6-----6-------------------------------------|
|-6-6-6-6-6-6-6-6-6-6-6-6-6-6---------------------------4-----4---|
|-4-4-4-4-4-4-4-4-4-4-4-4-4-4-----4-4-4-4-4-4-4-4-4---2-----2---0-|
|-----------------------------4-3-2-2-2-2-2-2-2-2-2-2-----0-------|
    . . .   . .   . .   . .   . . . . . . . . . . .
"Black lipstick_"


{Pre-chorus}
[Top string=keyboard, but live played by Kenny and octaves
 played by Pete on bass ]
|/18.-.-.-.-.-.-.-.-.-.-.-.-.-.-.18\13.-.-.-.-.-.-.-.-.-.-.-.-.-.-|
|-----------------------------------------------------------------|
|-8---8---8-----8---8---8---8-8-10--------------7---7---7---7-7---|
|-8---8---8-----------------------8---8---8---------------------10|
|-6---6---6---6---6---6---6-------8---8---8-----------------------|
|---------------------------------6---6---6---6---6---6---6-------|


|/18.-.-.-.-.-.-.-.-.-.-.-.-.-.-.18\11.-.-.-.-.-.-.-.-.-.-.-.-.-.-|
|-----------------------------------------------------------------|
|-6---6---6-----6---6---6---6-6-8---------------5---5---5---5-----|
|-6---6---6-----------------------6---6---6-----------------------|
|-4---4---4---4---4---4---4-------6---6---6-------------------/11\|
|---------------------------------4---4---4---4---4---4---4---/11\|


[Chorus-riff]
{ Watch the first chord! It's for that symphonic boost,
  don't play 2nd time.}
|-----------------------------------------------------------------|
|-----9----8------------------------------------------------------|
|-----8----8----8-----------------7-------------------------------|
|-x-x-6----8----8-- get rhythm ---8-------------------------8\----|
|-x-x-6----6----6-- for chords ---5-------------------------8\----|
|--------------------------------(6)------------------------6\----|
         "Aaaaaaaaaaaaaaaaaaahhhaaaaaaaaaaaaaaahhhaaaaa    Let me"


|-----------------------------------------------------------------|
|-2---------------------------------------------------------------|
|-3-------------------------------5-------------------------------|
|\4-------------------------------6-------------------------------|
|\4-------------------------------6-------------------------------|
|\2-------------------------------4--------------------------/16\-|
 "Love you...................toohoooooooooooooooooooooooo"


{Interlude}
|-------------------------11-----------------------|--------------|
|-------------------------12-----------------------|--------------|
|-6----------------------flick---------------------|--------------|
|-6----------------------toggle--------~\----------|--------------|
|-4--------------/11\--with one--------~\----------|-----/7--6----|
|----------------/11\---pickup volume down---------|-----(0)----7-|
 "deeeeeeeeeeeeeeath"


{ For high notes: play each 12 (3 times) and each 11 (2 times).}
{ The high notes are played again by the keyboard during the
  last riff of the song }
|-12---11---------12---11---------12---11---------12---11---------|
|-----------12--------------12--------------12--------------12----|
|-----------------------------------------------------------------|
|--7-------------------------------6------------------------------|
|--7------ chord rythm ------------7------------------------------|
|--5------ below...... ----5-5-5-7-4---------------------4-4-5-7--|


|-12---11---------12---11---------12---11-------14--12--11--------|
|-----------12--------------12--------------12--------------12----|
|-----------------------------------------------------------------|
|--2----------------9--------------9-----------9------------------|
|--2----------------7--------------9----------/9------------------|
|--0----------------0--------------7---------------5-7--9-7h9p7-6-|

[notes in parent.=keyboard, you can find the harmonic equivalent
 in the last riff]
|-(17)------------------------------------------------------------|
|-----------------------------------------------------------------|
|-----------------------------------------------------------------|
|-7-----7-7-----7---7---7-7---7---6-----6-6-----6---6---6-6---6\--|
|-7-----7-7-----7---7---7-7---7---7-----7-7-----7---7---7-7---7\--|
|-5---x-5-5---x-5-x-5-x-5-5---5---4---x-4-4---x-4-x-4-x-4-4---4\--|
                             "Am I good enough"

|---------------------------------------------(12)(11)------------|
|---------------------------------------------------(12)(10)(12)--|
|--------------------------------------------------------------(9)|
|-2-----2-2-----2---9---9-9---9---9-----9-9-----9---9-------------|
|-2-----2-2-----2---7---7-7---7---9-----9-9-----9---9-------h-p---|
|-0---x-0-0---x-0-x-0-x-0-0---0---7---x-7-7---x-7-x-7-5-7-9-797-6-|
                             "For youuuuuuuu"

{Ending riff}
{Clean gtr. with delay effect, you don't really need the effect } {The
harmonics are actually played by keyboard and are not
 played the 2nd time.}
{The 5th bar is the replacement for bar 4 the 2nd time the riff
 is played, so it's actually the last arpeggiated chord played;
 strum the chord and listen how it fades with the keyboard
 chord together on the album...}
{For the high notes on top of these chords, see a couple of
 riffs back.}
|-------------------|-------------------|-------------------|
|-----0---0---0---0-|-----0---0---0---0-|-----0---0---0---0-|
|-----4---4---4-----|-----4---4---4-----|-----4---4---4-----|
|---2---2---2-------|---2---2---2-------|---2---2---2-------|
|-0---0-------------|-------------------|-------------------|
|-------------------|-4---4-------------|-0---0-------------|
      Echo's              Echo's              Echo's

|---------2---2---2---<5>------------|-----------------------2-|
|-------2---2---2-------<4><5>-------|---------------2-----2---|
|-----4---4---4--------------<7>-----|-------4-----4-----4-----|
|---4---4---4------------------<7>---|---4-------4-----4-------|
|-2---2--------------------------<7>-|-2---2---2---------------|
|------------------------------------|-------------------------|
      Echo's          





Comments


Popular Type O Negative tabs & chords
Black No 1 Bass Tabs
Nettie Bass Tabs
Paranoid 2 Bass Tabs
World Coming Down 1 Bass Tabs
Angel Chords
Hey Pete Tabs
I Dont Want To Be Me Tabs
I Know Youre F**King Someone Else Tabs
Life Is Killing Me Tabs
World Coming Down Tabs


Song lyrics



↑ Back to top | Tablatures and chords are parodies/interpretations of the original songs. You may use it for private study, scholarship, research or language learning purposes only
© 2014 AZChords.com Contact us | Privacy policy | DMCA | Add/correct tabs | Request tabs | Top 50 tabs