» » »

Type O Negative, Burnt Flowers Fallen Tabs (ver.1)

Artists:  A B C D E F G H I J K L M N O P Q R S T U V W X Y Z # 

Burnt Flowers Fallen Tabs (ver.1)

Type O Negative Tabs
 Rating:
4/5 (4 votes)
Burnt Flowers Fallen lessons Tabs too difficult? Try these video lessons and learn fast
1
                ******************************************************
**    "Burnt Flowers Fallen" - Type O Negative      **
**                                                  **
******************************************************

Type-O tuning from low to high (B,E,A,D,F#,B)

Intro "Pink Floyd"-riff
{Clean guitar}
|-----------------------------------------|
|-----------------------------------------|
|--0-------------0--0--0--0---0--0---0--0-|
|--0----10-------0--0--0--0---0--0---0--0-|
|-10h12----12---12-12-12-12--12-12--14-14-|
|-----------------------------------------|

|-----------------------------------------|
|-----------------------------------------|
|--0-----0--0----0--0--0--0---0--0---0--0-|
|--0-----0--0----0--0--0--0---0--0---0--0-|
|-14p10-10-10---10-10-10-10--10-10--12-12-|
|-----------------------------------------|

|-----------------------------------------|
|-----------------------------------------|
|--0-----0--0----0--0--0--0---0--0---0--0-|
|--0-----0--0----0--0--0--0---0--0---0--0-|
|-12p-9--9--9----9--9--9--9---9--9--10-10-|
|-----------------------------------------|

|-----------------------------------------|
|-----------------------------------------|
|--0-----0--0----0--0--0--0------0--------|
|--0-----0--0----0--0--0--0------0--------|
|-10\-3--3--3----3--3--3--3--/5--5--------|
|-----------------------------------------|

Main-riff
{Distorted gtr.}
|-----------------------------------------|
|-----------------------------------------|
|<7>-0--------0-----0----0----0----0----0-|
|----0--------0-----0----0----0----0----0-|
|---12-------12----11---11---12---12---12-|
|---10--x--x-10--x-10-x-10-x-10-x-10-x-10-|

|-----------------------------------------|
|-----------------------------------------|
|--0--0-------0-----0----0----0----0----0-|
|--0--0-------0-----0----0----0----0----0-|
|-12/15------15----14---14---15---15---15-|
|-10/13-x--x-13--x-13-x-13-x-13-x-13-x-13-|

|-----------------------------------------|
|-----------------------------------------|
|--0--0--------0----0----0----0----0----0-|
|--0--0--------0----0----0----0----0----0-|
|-15/17--17---17---16---16---17---17---17-|
|-13/15--15---15-x-15-x-15-x-15-x-15-x-15-|

|-----------------------------------------|
|-----------------------------------------|
|--0--0--------0----0----0--0--0----------|
|--0--0--------0----0----0--0--0----------|
|-17\15--15---15---14---15-15-15-15/17-15-|
|-15\13--13---13-x-13-x-13-13-13-13/15-15-|


{This is somewhere in the verse/chorus}
|           1.3.5.|            2.3.|               6.|
|-----------------|----------------|-----------------|
|-----------------|----------------|-----------------|
|-----------------|----------------|-----------------|
|-0-------3p0-----|-0-0----3p0-0---|-0h5b6r5p3p0-0---|
|-5p0h3h5-----3h5-|---0h3------5---|-------------5---|
|-----------------|----------------|-----------------|


[Piano-riff]
|                         1.2.3.|                               4.|
|-----7---7---------0-7---7-5---|-----3---3-----------------------|
|-------------------------------|---------------------------------|
|---9---------9-----------------|---5---------5-7-----------------|
|-7-----7---7---5-------5-------|-3-----3---3---5-----------------|
|-------------------------------|---------------------------------|
|-------------------------------|---------------------------------|


|[Clean gtr.]             1.2.3.|                               4.|
|-------------------------------|-----------------------------0---|
|-------------------------------|---------------------------3-----|
|---------------0-------0-------|-------------------------2-------|
|-----9---9-----------9---9-7---|-----5---5-------------0---------|
|---7---------7-----7-----------|---3---------3-5-----5-----------|
|-5-----5---5-------------------|-1-----1---1---3---3-------------| | 
                             |                                 |
|[Dist.bass]                    |                                 |
|-------------------------------|---------------------------------|
|-------------------------------|---------------------------------|
|-------------------------------|---------------------------------|
|-------------------------------|---------------------------------|
|-7-------7-----5-------5.------|-3-------3-----5-----------------|
|-5-------5---x-3-------3.----0-|-1-------1---x-3-----------------|
            
Submit corrections

comments powered by Disqus
↑ Back to top | Type O Negative Tabs for Burnt Flowers Fallen. Lyrics for acoustic guitar and electric guitar. 1 Tablatures and chords are parodies/interpretations of the original songs. You may use it for private study, scholarship, research or language learning purposes only