» » »

Type O Negative, Black No Tabs (ver.1)

Artists:  A B C D E F G H I J K L M N O P Q R S T U V W X Y Z # 

Black No Tabs (ver.1)

Type O Negative Tabs
Rating:
0/5 (0 votes)
Black No lessons Tabs too difficult? Try these video lessons and learn fast
                Black No. 1 by Type O Negative
		from the album "Bloody Kisses"


I think this is one of the coolest songs I've ever heard.  I've only found 
one Type O Negative page on the web, so if you know of any, let me know!!!



Intro slide

E------11/------
A---------------
D---------------
G---------------
B---------------
e---------------


riff 1:
E------0--0--0--0--3--3--3--3---------------------3---------
A------------------------------2--2--2--0------0-----2------
D-----------------------------------------------------------
G-----------------------------------------------------------
B-----------------------------------------------------------
e-----------------------------------------------------------


riff 2:
E------0--0--0--0--3--3--3------------------------3---------
A---------------------------0--2-----2--0------0-----2------
D---------------------------------0-------------------------
G-----------------------------------------------------------
B-----------------------------------------------------------
e-----------------------------------------------------------


riff 3:
E------5--7--10--7--5------5--3--5------
A------7--9--12--8--7------7--5--7------
D------7--9--12--8--7------7--5--7------
G------6--8--11--9--6------6--4--6------
B---------------------------------------
e---------------------------------------

riff 4:
       E	      G		     B	      A	     A	G  A     
E------0--0--0--0--0--3--3--3--3--3--7--7--7--5------5--3--5------
A------2--2--2--2--2--5--5--5--5--5--9--9--9--7------7--5--7------
D------2--2--2--2--2--5--5--5--5--5--9--9--9--7------7--5--7------
G------1--1--1--1--1--4--4--4--4--4--8--8--8--6------6--4--6------
B-----------------------------------------------------------------
e-----------------------------------------------------------------


riff 5:
       E	      G	       A  B  D	 B  A	   A  G	 A
E------0--0--0--0--0--3--3--3--5--7--10--7--5------5--3--5------
A------2--2--2--2--2--5--5--5--7--9--12--8--7------7--5--7------
D------2--2--2--2--2--5--5--5--7--9--12--8--7------7--5--7------
G------1--1--1--1--1--4--4--4--6--8--11--9--6------6--4--6------
B---------------------------------------------------------------
e---------------------------------------------------------------


riff 6:
       E	      G		     B	      A	     A	G  A
E------0--0--0--0--0--3--3--3--3--3--7--7--7--5------5--3--5------
A------2--2--2--2--2--5--5--5--5--5--9--9--9--7------7--5--7------
D------2--2--2--2--2--5--5--5--5--5--9--9--9--7------7--5--7------
G------1--1--1--1--1--4--4--4--4--4--8--8--8--6------6--4--6------
B------0--0--0--0--0--3--3--3--3--3--7--7--7--5------5--3--5------
e------0--0--0--0--0--3--3--3--3--3--7--7--7--5------5--3--5------


riff 7:
       E	      G	       A  B  D	 B  A	   A  G	 A
E------0--0--0--0--0--3--3--3--5--7--10--7--5------5--3--5------
A------2--2--2--2--2--5--5--5--7--9--12--8--7------7--5--7------
D------2--2--2--2--2--5--5--5--7--9--12--8--7------7--5--7------
G------1--1--1--1--1--4--4--4--6--8--11--9--6------6--4--6------
B------0--0--0--0--0--3--3--3--5--7--10--7--5------5--3--5------
e------0--0--0--0--0--3--3--3--5--7--10--7--5------5--3--5------


riff 8:
       F#	A     D	  D   B	 A  B  A
E------2--2--2--5--5--10--10--7--5--7--5------
A------4--4--4--7--7--12--12--9--7--9--7------
D------4--4--4--7--7--12--12--9--7--9--7------
G------3--3--3--4--4--11--11--8--6--8--6------
B------2--2--2--5--5--10--10--7--5--7--5------
e------2--2--2--5--5--10--10--7--5--7--5------


riff 9:
       F#	A     A# C   D#	 C   A#
E------2--2--2--5--5--6--8---11--8---6------
A------4--4--4--7--7--8--10--13--10--8------
D------4--4--4--7--7--8--10--13--10--8------
G------3--3--3--4--4--7--9---12--9---7------
B------2--2--2--5--5--6--8---11--8---6------
e------2--2--2--5--5--6--8---11--8---6------


riff 10:
       A	   B	    F#		E
E------5--5--5--5--7--7--7--2--2--2--2--0--0--0------
A------7--7--7--7--9--9--9--4--4--4--4--2--2--2------
D------7--7--7--7--9--9--9--4--4--4--4--2--2--2------
G------6--6--6--6--8--8--8--3--3--3--3--1--1--1------
B------5--5--5--5--7--7--7--2--2--2--2--0--0--0------
e------5--5--5--5--7--7--7--2--2--2--2--0--0--0------





song order

Intro:
   slide
   riff 1 (x3)
   riff 2
Verse 1:
  "She's in love with herself"
     riff 1 (x3)
     riff 2
  "Now it's all Hallow's Eve"
     riff 1 (x3)
     riff 3
  "She will"
     riff 6 (x3)
     riff 7
Verse 2:
  "She's got a date"
     riff 4 (x3)
     riff 5
  "Well when I called her evil"
     riff 4 (x3)
     riff 5
Bridge:
     riff 8 (x3)
     riff 9
Chorus:
     riff 6
     riff 7
Verse 3:
  "Little wolf skin boots"
     riff 4 (x3)
     riff 5
  "Her perfume smells like"
     riff 4 (x3)
     riff 5
Bridge
Chorus
"Loving you" (don't have a clue how this goes)
"Loving you was like loving the dead"
     riff 10 (x3)
     riff 11
Solo and more stuff (don't have a clue how this goes)


Lyrics:

I went looking for trouble
and boy, I found her

She's in love with herself
she likes the dark
on her milk white neck
the Devil's mark

Now it's all Hallow's Eve
the moon is full
will she trick or treat
I bet she will

She will

She's got a date at midnight
with Nosferatu
oh baby, Lilly Munster
ain't got nothing on you

well when I called her evil
she just laughed
and cast that spell on me
boo b**ch craft

Bridge: yeah you wanna go out 'cause it's raining and blowing
	you can't go out 'cause your roots are showing
	dye em black
	dye em black

Chorus: black black black black no. 1
	(she dyes them black)
	black black black black no. 1

Little wolf skin boots
and clove cigarettes
an erotic funeral
for witch she's dressed

Her perfume smells like
burning leaves
everyday
is Halloween

[bridge]

[chorus]

loving you
loving you
love love loving you
is like loving the dead

Loving you was like loving the dead



Jason McCauley
            

comments powered by Disqus
↑ Back to top | Type O Negative Tabs for Black No. Lyrics for acoustic guitar and electric guitar. Tablatures and chords are parodies/interpretations of the original songs. You may use it for private study, scholarship, research or language learning purposes only