» » »

Type O Negative, Pyretta Blaze Tabs (ver.1)

Artists:  A B C D E F G H I J K L M N O P Q R S T U V W X Y Z # 

Pyretta Blaze Tabs (ver.1)

Type O Negative Tabs
 Rating:
4/5 (4 votes)
Pyretta Blaze lessons Tabs too difficult? Try these video lessons and learn fast
1
                Type O Negative-World Coming Down     
"Pyretta Blaze"

This song is done with a Baritone or 7-string guitar
or you can just tune your 6-string down 2 and a half steps
on each string to play this. Notes in () alternative ways. 

opening riff
E------------------------------------
B------------------------------------
G------------------------------------
D------------------4---------4-------
A--------2-3-4-5-6---6-5-4-2---2h4p2-
E--2-3-4-----------------------------
                               (quick trill)
E-------------------------
B-------------------------
G-------------------------
D--6---6---6---6-----6----
A----6---5---4----2----4^-
E----------------(7)------

the verses
E-----------------------------------------
B-----------------------------------------
G-----------------------------------------
D--4--4-4-4-4------6-6--------------------
A--2--2-2-2-2--4-4-4-4--------------------
E--------------2-2--------42^-42^-42^-42^-
      (grind)
  
the 'like a...' part        
E--------------------------------------------------------------------------
B--------------------------------------------------------------------------
G--------------------------------------------------------------------------
D-3--4-4-4-4-4-4-6--6-6-6-6-6-6-/9--9-9-9-9-9---/-11-11-11-11-11-11-11-11\-
A-2--2-2-2-2-2-2-4--4-4-4-4-4-4-/7--7-7-7-7-7/8-/-9--9--9--9--9--9--9--9-\-
E--------------------------------7--7-7-7-7-7/8-/-9--9--9--9--9--9--9--9-\-

the 'all cremated...' part:
E-------------------------
B-------------------------
G-------------------------
D-4--4-4-4-4------6--6----
A-2--2-2-2-2-4-4--4--4----
E------------2-2----------
 
the chorus 
E----------------------------------------------------------------
B----------------------------------------------------------------
G-8-8-8-x-x-x-x-x-10-10-10-x-x-x-x-x-6-6-6-x-x-x-x-x-------------
D-8-8-8-x-x-x-x-x-10-10-10-x-x-x-x-x-6-6-6-x-x-x-x-x----5/6-8--8-
A-6-6-6-x-x-x-x-x--8--8--8-x-x-x-x-x-4-4-4-x-x-x-x-x-6-8-----6--6
E----------------------------------------------------------------
 						     (incredibly quick)	
B--------------------------------------------------------
G--------------------------------------------------------
D-10-10-10-x-x-x-x-x-6-6-6-x-x-x-x-x-8-8-8-x-x-x-x-x-----
A-10-10-10-x-x-x-x-x-6-6-6-x-x-x-x-x-8-8-8-x-x-x-x-x-----
E--8--8--8-x-x-x-x-x-4-4-4-x-x-x-x-x-6-6-6-x-x-x-x-x-6/13
B--------------------------------------------------------
					     (don't hit this last note)		
B-----------------
G-----------------
D------------------
A-13-13-13-11-11-13
E------------------
B------------------

rythm guitar (behind solo)

B-----------------------------------------------------------------
G-----------------------------------------------------------------
D-6-6-6-6-6-5-4-3-------------------------------------------------
A-----------------6-6-6-6-6-5-4-3-2-2-2-2-2-1-2-6-4-4-4-4-4-3-4-4-
E-----------------------------------------------------------------
B-----------------------------------------------------------------
Sorry I don't got the solo if you really want to know it you will 
figure it out. It is not that hard.

Any questions, comments, or genital advice, contact me at:

Coming soon: Everything Dies-Bass Tab
             Day Tripper-Bass Tab
             and if your lucky
             Creepy Green Light-Bass Tab
            
Submit corrections

comments powered by Disqus
↑ Back to top | Type O Negative Tabs for Pyretta Blaze. Lyrics for acoustic guitar and electric guitar. 1 Tablatures and chords are parodies/interpretations of the original songs. You may use it for private study, scholarship, research or language learning purposes only