» » »

Type O Negative, Pyretta Blaze Tabs (ver.3)

Artists:  A B C D E F G H I J K L M N O P Q R S T U V W X Y Z # 

Pyretta Blaze Tabs (ver.3)

Type O Negative Tabs
Rating:
0/5 (0 votes)
Pyretta Blaze lessons Tabs too difficult? Try these video lessons and learn fast
                Type-O tuning from low to high (B,E,A,D,F#,B)

                                                     +=1/2 step pulloff
||-------------------------------------------|-----------------------||
||-------------------------------------------|-----------------------||
||-------------------------------------------|-----------------------||
||-------------------------4---------4-------|-/6---6---6---6---6----||
||---------------2-3-4-5-6---6-5-4-2---2^4^2-|----6---5---4---2---4+-||
||-X-(12)\-2-3-4-----------------------------|-----------------------||

"OOH!"                                        +=1/2 step pulloff
||------------------------------------|-----------------------||
||------------------------------------|-----------------------||
||------------------------------------|-----------------------||
||------------------4---------4-------|-/6---6---6---6---6----||
||--------2-3-4-5-6---6-5-4-2---2^4^2-|----6---5---4---2---4+-||
||--2-3-4-----------------------------|-----------------------||

VERSE:
    "Beautiful and dangerous"
         pm.      pm                                    (2times)
||------------------------------------------------------------||
||------------------------------------------------------------||
||------------------------------------------------------------||
||-4--4--4-4--------------------------------------------------||
||-2--2--2-2-X-4--4-4-4-4\------------------------------------||
||-------------2--2-2-2----2^4-2--2^4-2--2^4-2--2^4-2--2^4-2\-||
         
        "Like a moth drawn to a flame     I'm the same"
      pm........|    ..........|     ......|       ............|
||----------------------------------------------------------------||
||----------------------------------------------------------------||
||----------------------------------------------------------------||
||-3--4-4-4-4-4-4-6--6-6-6-6-6-6-/9--9-9-9-9-9/-1111111111111111\-||
||-2--2-2-2-2-2-2-4--4-4-4-4-4-4-/7--7-7-7-7-7/8/9-9-9-9-9-9-9-9\-||
||--------------------------------7--7-7-7-7-7/8/9-9-9-9-9-9-9-9\-||

   "All cremated equally"
         pm..|      pm
||-------------------------||
||-------------------------||
||-------------------------||
||-4--4--4-4-4-------------||
||-2--2--2-2-2-4--4-4-4-4\-||
||-------------2--2-2-2----||

                                             +=1/2 step pulloff 
||------------------------------------|-----------------------||
||------------------------------------|-----------------------||
||------------------------------------|-----------------------||
||------------------4---------4-------|-/6---6---6---6---6----||
||--------2-3-4-5-6---6-5-4-2---2^4^2-|----6---5---4---2---4+-||
||--2-3-4-----------------------------|-----------------------||

Repeat Verse

CHORUS: (2times)
(clean guitar)
    "You are the first..."
||--------------------------------------------------------------------||
||--------------------------------------------------------------------||
||-8-8-8-x-x-x-x-x-10-10-10-x-x-x-x-x-6-6-6-x-x-x-x-x-----------------||
||-8-8-8-x-x-x-x-x-10-10-10-x-x-x-x-x-6-6-6-x-x-x-x-x-----5^6-8---8---||
||-6-6-6-x-x-x-x-x--8--8--8-x-x-x-x-x-4-4-4-x-x-x-x-x-6-8-------6---6-||
||--------------------------------------------------------------------||
 
      "Aaaaaah               Pyretta blaze"
||----------------------------------------------------------------------||
||----------------------------------------------------------------------||
||10-10-10-x-x-x-x-x-6-6-6-x-x-x-x-x-8-8-8-x-x-x-x-x--------------------||
||10-10-10-x-x-x-x-x-6-6-6-x-x-x-x-x-8-8-8-x-x-x-x-x-/13-13-13-11-11-13-||
||-8--8--8-x-x-x-x-x-4-4-4-x-x-x-x-x-6-6-6-x-x-x-x-x--------------------||
||----------------------------------------------------------------------||

                                             +=1/2 step pulloff 
||------------------------------------|-----------------------||
||------------------------------------|-----------------------||
||------------------------------------|-----------------------||
||------------------4---------4-------|-/6---6---6---6---6----||
||--------2-3-4-5-6---6-5-4-2---2^4^2-|----6---5---4---2---4+-||
||--2-3-4-----------------------------|-----------------------||

Guitar solo rhythm fig.
(the lead part is a bunch of random notes w/delay)
||-----------------------------------------------------||
||-----------------------------------------------------||
||-----------------------------------------------------||
||-6--6-6-/13--13-13-12-11-10-9--9-9-8-9/12-11-11-11---||
||-4--4-4-/11--11-11-10--9--8-7--7-7-6-7/11--9--9--9-\-||
||-----------------------------------------------------||

Repeat verse/chorus.

CHORUS w/ Distortion:(half time feel)
"You are the first....                        Pyretta Blaze"
||----------------------------------------------------||
||----------------------------------------------------||
||----------------------------------------------------||
||-8--8--10--10---6--6--8---------(8)/10----6------8--||
||-6--6---8---8---4--4--6---------(6)/-8----4------6--||
||----------------------------------------------------||

OUTRO:
||-------------------------||
||-------------------------||
||-------------------------||
||--------6^4--------------||
||------6-----6----------4-||
||-4-4----------7-7--4^7---||

(with notes/feedback etc etc until end)
            

comments powered by Disqus
↑ Back to top | Type O Negative Tabs for Pyretta Blaze. Lyrics for acoustic guitar and electric guitar. Tablatures and chords are parodies/interpretations of the original songs. You may use it for private study, scholarship, research or language learning purposes only