>
 >
I Don't Wanna Be Me

I Don't Wanna Be Me Guitar Tabs

Type O Negative - I Don't Wanna Be Me chords, tabs, tablatures, lyrics

Guitar lessons | Add/correct | Request | Top 50 tabs Artists:  A B C D E F G H I J K L M N O P Q R S T U V W X Y Z 0-9

I Don't Wanna Be Me Guitar Tabs – Type O Negative

CD, Sheet music, Poster

Do you like I Don't Wanna Be Me? Share with your friends now
Bass TabsChordsTabsTabs v2Tabs v3
I Dont Wanna Be Me - Type O'Negative
Tuning: BEADF#B 2 1/2 steps down (Should be very low)
!This song goes really fast so practice your PM picking!

Intro
|------------------------------------------------|
|------------------------------------------------|
|------------------------------------------------|
|11-11-11-11-11-11-11-11-11-11-11-11-11-11-11-11-|
|11-11-11-11-11-11-11-11-11-11-11-11-11-11-11-11-|
|9- 9- 9- 9- 9- 9- 9- 9- 9- 9- 9- 9- 9- 9- 9- 9--|
PM.............................................

|------------------------------------------|
|------------------------------------------|
|------------------------------------------|
|11-11-11-11-11-11-11-11-11-11-11-11-11-11-|
|11-11-11-11-11-11-11-11-11-11-11-11-11-11-|
|9- 9- 9- 9- 9- 9- 9- 9- 9- 9- 9- 9- 9- 9 -|
PM....... (GET LOUDER)

Chorus 1
|--------------------------------------------------------|
|--------------------------------------------------------|
|--------------------------------------------------------|
|7-7-7-7-7-7-7-7-4-4-4-4-4-4-4-4-11-11-11-11-11-11-11-11-|
|7-7-7-7-7-7-7-7-4-4-4-4-4-4-4-4-11-11-11-11-11-11-11-11-|
|5-5-5-5-5-5-5-5-2-2-2-2-2-2-2-2-9 -9 -9 -9 -9 -9 -9 -9 -  x2
PM.....................................................

First Ending                Second Ending
|------------------------   |-------|
|------------------------   |-------|
|------------------------   |-------|
|11-11-11-11-11-11-11-11-   |11--11-|
|11-9 -9 -9 -9 -9 -9 -9 -   |9 --9
|9 -9 -9 -9 -9 -9 -9 -9 -   |9 --9
........................

Interluding Thing
|-----------------------------------------------------------------|
|9----9----9-------------------/9--------/9-----------------------|
|-9----9----9-----8/////9--------9---------9------8--/4-xx//\\\---|
|-------------------------------------------------------xx//\\\---|
|-----------------------------------------------------------------|
|-----------------------------------------------------------------| X2
Clear and Loud                                    Pick Scraps

SECOND GUITAR ON THE SECOND TIME THROUGH THE INTERLUDING THING PLAYS
|16-----16-----16---------------------/16-------/16--------------|
|--17-----17-----17-----16/////17--------17--------17---16~~~/12-|
|----------------------------------------------------------------|
|----------------------------------------------------------------|
|----------------------------------------------------------------|
|----------------------------------------------------------------|

Interluding Thing Part 2
Chorus 2
SECOND GUITAR
|--------------------------------------------------------|
|--------------------------------------------------------|
|--------------------------------------------------------|
|7-7-7-7-7-7-7-7-4-4-4-4-4-4-4-4-11-11-11-11-11-11-11-11-|
|7-7-7-7-7-7-7-7-4-4-4-4-4-4-4-4-11-11-11-11-11-11-11-11-|
|5-5-5-5-5-5-5-5-2-2-2-2-2-2-2-2-9 -9 -9 -9 -9 -9 -9 -9 -
PM.....................................................

First Ending                  Fourth Ending
|------------------------     |------------------------|
|------------------------     |------------------------|
|------------------------     |------------------------|
|11-11-11-11-11-11-11-11-     |11-11-11-11-11-11-11-11-|
|11-9 -9 -9 -9 -9 -9 -9 -     |11-9 -9 -9 -9 -9 -9 -9 -
|9 -9 -9 -9 -9 -9 -9 -9 -  x3 |9 -9 -9 -9 -9 -9 -9 -9 -
.........................     PM ......... (GET LOUDER)

FIRST GUITAR
|----------------------------------------
|12b^^^^^^^^FULL^^^^^^^^^^^^^^^^^^^^^^^^^ Hold until the 2nd ending
|-----------------------------------------| in the SECOND GUITAR part then
|-----------------------------------------| join the last 2 ending with
|-----------------------------------------| 2nd guitar.
|-----------------------------------------|

REPEAT THE INTERLUDE THING PART 1 and 2

Chorus 2 With out the Bending part
SECOND GUITAR
|--------------------------------------------------------|
|--------------------------------------------------------|
|--------------------------------------------------------|
|7-7-7-7-7-7-7-7-4-4-4-4-4-4-4-4-11-11-11-11-11-11-11-11-|
|7-7-7-7-7-7-7-7-4-4-4-4-4-4-4-4-11-11-11-11-11-11-11-11-|
|5-5-5-5-5-5-5-5-2-2-2-2-2-2-2-2-9 -9 -9 -9 -9 -9 -9 -9 -
PM.....................................................

First Ending                  Fourth Ending
|------------------------     |------------------------|
|------------------------     |------------------------|
|------------------------     |------------------------|
|11-11-11-11-11-11-11-11-     |11-11-11-11-11-11-11-11-|
|11-9 -9 -9 -9 -9 -9 -9 -     |11-9 -9 -9 -9 -9 -9 -9 -
|9 -9 -9 -9 -9 -9 -9 -9 -  x3 |9 -9 -9 -9 -9 -9 -9 -9 -
.........................     PM ......... (GET LOUDER)

Guitar Solo
|----------------------------------------------------------------------|
|12-9-12-9-12-9-12-9-12-9-12-9-12-9-12-9-12-9-12-9-12-9-12-9-12-9-12-9-|
|----------------------------------------------------------------------|
|----------------------------------------------------------------------|
|----------------------------------------------------------------------|
|----------------------------------------------------------------------|
 Pulls Offs and Hammer Ons

|----------------------------------------------------------------------|
|12-9-12-9-12-9-12-9-12-9-12-9-12-9-12-9-12-9-12-9-12-9-12-9-12-9-12-9-|
|----------------------------------------------------------------------|
|----------------------------------------------------------------------|
|----------------------------------------------------------------------|
|----------------------------------------------------------------------|
Pulls Offs and Hammer Ons

|-----------------------------------------------|
|12b^--12b^--12b^--12b^--9--9--9----9--9--9--9\-|
|11b^--11b^--11b^--11b^--9--9--9----9--9--9--9\-|
|--------------------------------11-------------|
|-----------------------------------------------|
|-----------------------------------------------|

|------------------------------------------------------------|
|19b^--19b^--19b^--19b^~---17-19-17---17-19-17---17-19-17----|
|-----------------------18----------18---------18---------18-|
|------------------------------------------------------------|
|------------------------------------------------------------|
|------------------------------------------------------------|
                         Pull Offs and Hammer Ons

|---------------------------------------------------|
|17-19-17-19-17-19-17-19-17-19-17-19-17-19-17-19----|
|---------------------------------------------------|
|---------------------------------------------------|
|---------------------------------------------------|
|---------------------------------------------------|
Pull Offs and Hammer Ons

|19b^---19b^---19b^-19b^-------------|
|-----------------------19b^^^^^^\\\-|
|------------------------------------|
|------------------------------------|
|------------------------------------|
|------------------------------------|

Outro
|--------------------------------------------------------|
|--------------------------------------------------------|
|--------------------------------------------------------|
|7-7-7-7-7-7-7-7-4-4-4-4-4-4-4-4-11-11-11-11-11-11-11-11-|
|5-5-5-5-5-5-5-5-2-2-2-2-2-2-2-2-11-11-11-11-11-11-11-11-|
|5-5-5-5-5-5-5-5-2-2-2-2-2-2-2-2-9 -9 -9 -9 -9 -9 -9 -9
PM.....................................................

|------------------------|
|------------------------|
|------------------------|
|11-11-11-11-11-11-11-11-|
|11-9 -9 -9 -9 -9 -9 -9
|9 -9 -9 -9 -9 -9 -9 -9
.......................

|---------------------------------------------------|
|---------------------------------------------------|
|---------------------------------------------------|
|7-7-7-7-7-7-7-7-4-4-4-4-4-4-4-4--------------------|
|5-5-5-5-5-5-5-5-2-2-2-2-2-2-2-2--------------------|
|5-5-5-5-5-5-5-5-2-2-2-2-2-2-2-2--9//////////////17-|
PM..............................

FOR THE OTHER GUITAR PART, REPEAT THE BEGINING OF THE INTERLUDE THING

*************************
###### ##      ##   ###
##      ##    ##   ## ##
#####    ##  ##   ##   ##
##        ####     ## ##
######     ##       ###
*************************
Type O'Negative Tabs





Comments


Popular Type O Negative tabs & chords
Bloody Kisses Bass Tabs
Nettie Bass Tabs
White Slavery Bass Tabs
Wolf Moon 3 Bass Tabs
Burnt Flowers Fallen Tabs
Christian Woman Tabs
Der Untermensch Tabs
Summer Breeze 2 Tabs
Thirteen Tabs
White Slavery Tabs


Song lyrics



↑ Back to top | Tablatures and chords are parodies/interpretations of the original songs. You may use it for private study, scholarship, research or language learning purposes only
© 2014 AZChords.com Contact us | Privacy policy | DMCA | Add/correct tabs | Request tabs | Top 50 tabs