>
 >
Paranoid

Paranoid Bass Tabs

Type O Negative - Paranoid chords, tabs, tablatures, lyrics

Guitar lessons | Add/correct | Request | Top 50 tabs Artists:  A B C D E F G H I J K L M N O P Q R S T U V W X Y Z 0-9

Paranoid Bass Tabs – Type O Negative

CD, Sheet music, Poster

Do you like Paranoid? Share with your friends now
Bass TabsBass Tabs v2Tabs
Type O Negative -  Paranoid, Off The Album The Origin of the Feces from 1992






  Intro

D|-------------||-------------------||
A|-------------||-------------------||
E|--12/--(7)---||-----/--10/9/7/5\7-||
B|-------------||-------------------||


D|--------------------------------------||-----------------------------||
A|--------------------------------------||-----------------------------||
E|-----7-7-7-7-7-7777-----5--10/9/7/5\7-||-----7-7-7-7-7-7777-----(5)--||
B|-0-0----------------0-0---------------||-0-0----------------0-0------||


Verse 1

  Finished  with my women,She could not 
D|------------------------||-----------------------||
A|------------------------||-----------------------||
E|------------------------||---5-------------------||
B|-0----------------------||-----------------------||

  People,because I am
D|------------------------||------------------------------||
A|------------------------||------------------------------||
E|------------------------||--5-------------10/9/7/5\7----||
B|--0---------------------||------------------------------||

  All the time
D|-----------------||-----------------------||
A|-----------------||---------------5-------||
E|-------3-----5---||------0------------5---||
B|-0---------------||-----------------------||

 All the time
D|------------------||-----------------------||
A|------------------||-------------5-----4---||
E|-------3-----5----||--0--------------------||
B|-0----------------||-----------------------||

Verse 2
  All day long,But Nothing
D|------------------------||------------------||
A|------------------------||------------------||
E|------------------------||---5--------------||
B|-0----------------------||------------------||

  Think Ill lose,If I,Pacify
D|------------------------||--------------------------------------||
A|------------------------||--------------------------------------||
E|------------------------||-------5-----------------10/9/7/5\7---||
B|--0---------------------||--------------------------------------||

                                    Play 2x
  Can you help me feel,Love,Love
D|------------------------------------------||
A|------------------------------------------||
E|--2---------------------4-----------------||
B|---------------------------------5--------||
  
    
D|------------------------------------------||
A|------------------------------------------||
E|--2---------------------4-----------------||
B|---------------------------------5--------||


  Intro                                                        play 1x
D|--------------------------------------||-----------------------------||
A|--------------------------------------||-----------------------------||
E|-----7-7-7-7-7-7777-----5--10/9/7/5\7-||-----7-7-7-7-7-7777-----(5)--||
B|-0-0----------------0-0---------------||-0-0----------------0-0------||


 Verse 3
    I need someone, The Things 
D|------------------------||------------------||
A|------------------------||------------------||
E|------------------------||---5--------------||
B|-0----------------------||------------------||

  I can t see the things     happiness I must be blind
D|------------------------||--------------------------------||
A|------------------------||--------------------------------||
E|------------------------||--5---------------10/9/7/5\7----||
B|--0---------------------||--------------------------------||

Iron Man Part
D|---------------------------------------|---------------------------------
A|---------------------------------------|---------------------------------
E|-2---5---5/7-7--10-9-10-9-10\-5-5\7-7--|-2---5---5/7-7--10-9-10-9-10---(5)
B|---------------------------------------|---------------------------------


  Bass/Keys
D|-----16--14--12-14-------11-9--9--7--9--||
A|----------------------------------------||
E|---------------------0------------------||
B|-0--------------------------------------||

                                   |...Dist....|
D|-----16--14--12-14-------11-9----------------||
A|---------------------------------------------||
E|---------------------0-----------10/9/7/5\7--||
B|-0-------------------------------------------||


  Intro
D|--------------------------------------||-----------------------------||
A|--------------------------------------||-----------------------------||
E|-----7-7-7-7-7-7777-----5--10/9/7/5\7-||-----7-7-7-7-7-7777-----(5)--||
B|-0-0----------------0-0---------------||-0-0----------------0-0------||




 Verse 4

  Make a joke,She

D|------------------------||------------------||
A|------------------------||------------------||
E|------------------------||---5--------------||
B|-0----------------------||------------------||

  Happiness,Love.,So unreal
D|------------------------||--------------------------------||
A|------------------------||--------------------------------||
E|------------------------||--5---------------10/9/7/5\7----||
B|--0---------------------||--------------------------------||


  So Unreal               Play 2x
D|------------------||-----------------------||
A|------------------||-----------------------||
E|-------3-----5----||--0--------------------||
B|-0----------------||-------------3----2----||



  Verse 5

   And so,telling you
D|------------------------||------------------||
A|------------------------||------------------||
E|------------------------||---5--------------||
B|-0----------------------||------------------||

  I tell you,I wish,Its too late
D|------------------------||--------------------------------||
A|------------------------||--------------------------------||
E|------------------------||--5---------------10/9/7/5\7----||
B|--0---------------------||--------------------------------||

Lyrice/Keys

  Play 2x without Lyrice
D|----------------------||
A|----------------------||
E|-2----------4---------||
B|-----------------5----||

       Play 3x
D|----------------------||-------------------------||
A|----------------------||-------------------------||
E|-2----------4---------||-2----------4------------||
B|-----------------5----||-----------------55555---||

 Intro
D|--------------------------------------||-----------------------------||
A|--------------------------------------||-----------------------------||
E|-----7-7-7-7-7-7777-----5--10/9/7/5\7-||-----7-7-7-7-7-7777-----(5)--||
B|-0-0----------------0-0---------------||-0-0----------------0-0------||

 outro
 Bass&Keys
         Play Till End
D|-----16--14--12-14--------11-9--9--7--9--||
A|----------------------0------------------||
E|-----------------------------------------||
B|-0---------------------------------------||





Comments


Popular Type O Negative tabs & chords
Black No. 1 1 Bass Tabs
Can't Lose You Bass Tabs
Some Stupid Tomorrow Bass Tabs
Iydkmigthtky (Gimme That) Tabs
Out Of The Fire Tabs
She Burned Me Down Tabs
Tripping A Blind Man Tabs
White Slavery Tabs
World Coming Down Tabs
Xero Tolerance Tabs


Song lyrics



↑ Back to top | Tablatures and chords are parodies/interpretations of the original songs. You may use it for private study, scholarship, research or language learning purposes only
© 2014 AZChords.com Contact us | Privacy policy | DMCA | Add/correct tabs | Request tabs | Top 50 tabs