» » »

Type O Negative, Paranoid Tabs (ver.1)

Artists:  A B C D E F G H I J K L M N O P Q R S T U V W X Y Z # 

Paranoid Tabs (ver.1)

Type O Negative Tabs
Rating:
0/5 (0 votes)
Paranoid lessons Tabs too difficult? Try these video lessons and learn fast
                
Tuning: BEADF#B


e|---------------------------------------------------------------------------|
B|---------------------------------------------------------------------------|
G|---------------------------------------------------------------------------|
D|----9--9--9-9-9--9-9-9-9-9-9--7--7--7----12/11-11/9-9/7-7\9----------------|
A|----7--7--7-7-7--7-7-7-7-7-7--5--5--5----10/9--9-/7-7/5-5\7----------------|
E|---------------------------------------------------------------------------|

Main riff
e|---------------------------------------------------------------------------|
B|---------------------------------------------------------------------------|
G|---------------------------------------------------------------------------|
D|---9-------7------9------7--12/11-11/9-9/7-7\9-----------------------------|
A|---7-------5------7------5--10/9--9-/7-7/5-5\7-----------------------------|
E|---------------------------------------------------------------------------|


e|---------------------------------------------------------------------------|
B|---------------------------------------------------------------------------|
G|---------------------------------------------------------------------------|
D|-----9----5----7-----2----5----7-----9---5----7---2---5---7----------------|
A|-----7----3----5-----0----3----5-----7---3----5---0---3---5----------------|
E|---------------------------------------------------------------------------|

"Can you help me feel..." riff

e|---------------------------------------------------------------------------|
B|---------------------------------------------------------------------------|
G|---------------------------------------------------------------------------|
D|---------------------------------------------------------------------------|
A|------7---------9--------5--------7------9-----5---------------------------|
E|------5---------7--------3--------5------7-----3---------------------------|


"Iron Man" riff
e|---------------------------------------------------------------------------|
B|---------------------------------------------------------------------------|
G|---------------------------------------------------------------------------|
D|---4-----7--7---9-9---12/11\12/11\12/11--7-7--9-9--------------------------|
A|---2-----5--5---7-7---10/9-\10/9-\10/9---5-5--7-7--------------------------|
E|---------------------------------------------------------------------------|



| /  slide up
| \  slide down
| h  hammer-on
| p  pull-off
| ~  vibrato
| +  harmonic
| x  Mute note
            

comments powered by Disqus
↑ Back to top | Type O Negative Tabs for Paranoid. Lyrics for acoustic guitar and electric guitar. Tablatures and chords are parodies/interpretations of the original songs. You may use it for private study, scholarship, research or language learning purposes only