» » »

Type O Negative, My Girlfriend's Girlfriend Tabs (ver.3)

Artists:  A B C D E F G H I J K L M N O P Q R S T U V W X Y Z # 

My Girlfriend's Girlfriend Tabs (ver.3)

Type O Negative Tabs
 Rating:
4/5 (4 votes)
My Girlfriend's Girlfriend lessons Tabs too difficult? Try these video lessons and learn fast
                Type O Negative - My Girlfriend's Girlfriend

Tune down one whole step (D,G,C,F,A,D)
x - Palm Mute
h - Hammer On
^ - Bend Up
/ - Slide
p^ - Pinch Harmonic 

Riff A (clean w/ chorus)
|---------------------------|
|---------------------------|
|-6-4-7-6-4-2h4-6-4-2-1-2h4-|
|4---4-4-------4---4-2-2----|
|---------------------------|
|---------------------------|

Riff B
|--------------------------------------------|
|--------------------------------------------|
|--------------------------------------------|
|----------7-7-7-6-6-6-4-4-4-4-4-7-7-7-9-9-9-|
|4-4-4-4-4-5-5-5-4-4-4-2-2-2-2-2-5-5-5-7-7-7-|
|2-2-2-2-2-----------------------------------|

Riff C
|-------------------------|------------------|
|-------------------------|------------------|
|-------------------7-7-7-|------------------|
|-------------------5-5-5-|------------------|
|4-4-4-4-4-4-4-4-4-4------|7-7-7-8-7-2-2-3-2-|
|2-2-2-2-2-2-2-2-2-2------|5-5-5-6-5-0-0-1-0-|
   x x x x x x x x x

Riff D
|------------------------|
|------------------------|
|------------------------|
|------------4-3-4-6-6-6-|
|6-6-6-6-6-6-2-1-2-4-4-4-|
|4-4-4-4-4-4-------------|

Solo (Not correct, but close enough)
|---------------------------------------------------------------------------|
|-----------------------------------------14--13--12--10--9--15-17h18-18-13-|
|9p^------------------------------13-13-11--11--11--11--11-11---------------|
|--------7-7-10-9-7-7-----7-7h9-11------------------------------------------|
|---7-9-9---9------9-9-7h9--------------------------------------------------|
|---------------------------------------------------------------------------|

Riff E
|------------------|
|------------------|
|------------------|
|------------------|
|----6-5-4-2-4-2-1-|
|11/4--------------|

Riff F
|------------------------|
|------------------------|
|------------------------|
|3-3-3-3-3-3-6-5-6-8-8-8-|
|1-1-1-1-1-1-4-3-4-6-6-6-|
|------------------------|
            
Submit corrections

comments powered by Disqus
↑ Back to top | Type O Negative Tabs for My Girlfriend's Girlfriend. Lyrics for acoustic guitar and electric guitar. Tablatures and chords are parodies/interpretations of the original songs. You may use it for private study, scholarship, research or language learning purposes only