» » »

Type O Negative, My Girlfriend's Girlfriend Bass tabs (ver.1)

Artists:  A B C D E F G H I J K L M N O P Q R S T U V W X Y Z # 

My Girlfriend's Girlfriend Bass tabs (ver.1)

Type O Negative Tabs
 Rating:
4/5 (4 votes)
My Girlfriend's Girlfriend lessons Tabs too difficult? Try these video lessons and learn fast
1
                Type O Negative - My Girlfriend's Girlfriend 


Drum/Keys intro

   1              :20   play 2 times
G|--------------------------------------------------|
D|--------------------------------------------------|
A|--------------------------------------------------|
E|-5-5-5-5-5-5---8-8-7-7---5-5-5-5-5-5---8-8-10-10--| 

Verse 
  play 3 times                                  play 2 times
G|------------------------------------|| |------------------------------|
D|------------------------------------|| |------------------------------|
A|----------------------------8/------|| |--3--3--3-2-0-----------------|
E|----5-x-x-x-x-x-x-x-x---------------|| |-----------------3--3/7--3/5--|

 1 here play 2 time
Verse here

Chorus
           play 4 times
G|-----------------------------------|
D|-----------------------------------|
A|----------------------5-4-5-7-7-7--|
E|-7-7-7-7-7-7-7-7-------------------|  

Verse here

Bridge here

Chorus here

Bass solo
            4X's
G|----------------------------|
D|----------------------------|
A|----------7-6-5-4-----------|
E|-0-5/7-7-----------5-7-6-4--| 

Chorus here
            
Submit corrections

comments powered by Disqus
↑ Back to top | Type O Negative Bass for My Girlfriend's Girlfriend. Lyrics for acoustic guitar and electric guitar. 1 Tablatures and chords are parodies/interpretations of the original songs. You may use it for private study, scholarship, research or language learning purposes only